Cifra Club

Milagros

Buenos Muchachos

Cifrado: Principal (guitarra y guitarra eléctrica)
tono: Em
E|-----------------------------------------------------|
B|-----------------------------------------------------|
G|------0-------0-------0-------0----------------------|
D|----2---2---2---2---2---2---2---2--------------------|
A|-----------------------------------------------------|
E|--0-------0-------0-------0--------------------------|

E|-----------------------------------------------------|
B|-----------------------------------------------------|
G|------0-------0-------0-------0----------------------|
D|----1---1---1---1---1---1---1---1--------------------|
A|-----------------------------------------------------|
E|--0-------0-------0-------0--------------------------|



Va Milagros hacia el sur

no dará su alma aún,

flor de lujo y de placer

flor de noche y cabaret.


Más palabras sin razón

frases cortas con pasión,

hoy no vendrá a hablar de amor
                  E
no dirá nosotros dos.

        G            C
Mandá flores y un papel
       B             E
que Milagros ya se fue
          G          C
muere un poco más y más
              B          E
porque en duelo ya no estás.

E

RIFF:

Cuando el alba ya prendió

Milagros se disfrazó,


la pasión suelta su voz
                   E
la chispa desvaneció.


        G            C
Manda flores y un papel
       B             E
que Milagros ya se fue,
          G          C
muere un poco mas y mas
          B             E
que Milagros ya no estará.
         G             C
Vive un tanto muerta así
         B              E
dulces sueños hasta el fin,

          G           C          B          E
solo el tiempo le llevó el miedo a sentir amor.

E

A B C D (x4)

E

        G            C
Manda flores y un papel
       B             E
que Milagros ya se fue,
          G          C
muere un poco mas y mas
          B             E
que Milagros ya no estará.
         G             C
Vive un tanto muerta así
         B              E
dulces sueños hasta el fin,

          G           C          B          E
solo el tiempo le llevó el miedo a sentir amor.

E
00:00 / 00:00
Otros videos de esta canción
Repetir
Otros videos de esta canción
Composición de Yo q se
22 exhibiciones
    • ½ Tono
    • Am
    • Bbm
    • Bm
    • Cm
    • C#m
    • Dm
    • Ebm
    • Em
    • Fm
    • F#m
    • Gm
    • G#m
  • Agregar a la lista
    00:00 / 00:00
    OK