Cifra Club

Nico Cuevas

Buenos Muchachos

Cifrado: Principal (guitarra y guitarra eléctrica)
tono: C

RIFF
E|--------------------------------|---------------------------------|
B|--------------------------------|---------------------------------|
G|--------------------------------|--------------------0------------|
D|--------------------------------|-----0---------2-----------------|
A|-----------------0--2-----------|--------2--3---------------------|
E|------0--2--3-------------------|---------------------------------|

E|-------------------------------|------------------------------------|
B|-------------------------------|------------------------------------|
G|-------------------------------|------------0---------2--------0----|
D|-------------------------------|--------2------2---------2----------|
A|----3--2-----------------------|-----2-------------2----------2-----|
E|------------2h3---0------------|------------------------------------|


C
el nico llegó a ser rey

G
su corona se ve adentro

C
lográndose suicidar

G
el descubre un viaje nuevo

grita
Em C
si yo nazco al morir

G
la muerte es vida

(RIFF)

nico dice
hermanito el dolor quedó atrás
y te puedo acompañar…
voy sin heridas
el adiós en verdad no es real
lo real en verdad hace mal
mata la vida
00:00 / 00:00
Otros videos de esta canción
Repetir
Otros videos de esta canción
Composición de Buenos Muchachos
10 exhibiciones
    • ½ Tono
    • A
    • Bb
    • B
    • C
    • Db
    • D
    • Eb
    • E
    • F
    • F#
    • G
    • Ab
  • Agregar a la lista
    00:00 / 00:00
    OK