Cifra Club

Temperamento

Buenos Muchachos

Chords: Principal (acoustic and electric guitars)
tone: F
Em       0-2-2-X-X-X
F        1-3-3-X-X-X

El rasgueo al principio es siempre muteado y siempre alternando:
hacia abajo, hacia arriba, hacia abajo, hacia arriba...

Em     F       Em     F
Eeeeehhh vamos a ti

            Em
montando el caballo negro

       F           Em
que es todo temperamento...

...........................

     F             Em       F
...reflejan temperamento

...................................
E|---------------------------------|
B|---------------------------------|
G|---------------------------------| (x4)
D|---------------------------------|
A|--------------2------------------|
E|--0-0-0-0-2h3---0-0-0-0-2h3-3-2--|

........la luz se apaga............
E|---------------------------------|
B|---------------------------------|
G|---------------------------------|
D|---------------------------------|
A|--------------2------------------|
E|--0-0-0-0-2h3---0-0-0-0-2h3-3-2--|

...va a la cien
E|---------------------------------|
B|---------------------------------|
G|---------------------------------|
D|---------------------------------|
A|--------------2-------------2----|
E|--0-0-0-0-2h3---0-0-0-0-2h3------|

Progresivamente el rasgueo deja de ser muteado

......manos te tiemblan............
E|---------------------------------|
B|---------------------------------|
G|---------------------------------|
D|---------------------------------|
A|--------------2------------------|
E|--0-0-0-0-2h3---0-0-0-0-2h3-3-2--|

...se vuelve a undir
E|---------------------------------|
B|---------------------------------|
G|---------------------------------|
D|---------------------------------|
A|--------------2-------------2----|
E|--0-0-0-0-2h3---0-0-0-0-2h3------|

Distorsión

E|---------------------------------|
B|---------------------------------|
G|---------------------------------| (x2)
D|---------------------------------|
A|--------------2------------------|
E|--0-0-0-0-2h3---0-0-0-0-2h3-3-2--|

Ay, siento que vos vas subiendo y ahi voy

E|---------------------------------|
B|---------------------------------|
G|---------------------------------|
D|---------------------------------|
A|--------------2------------------|
E|--0-0-0-0-2h3---0-0-0-0-2h3-3-2--|

...................................

Em          F
  Nunca fui yo

Em                    F
  el que estuvo en el hielo

...........................

Temperamento!

E|---------------------------------|
B|---------------------------------|
G|---------------------------------| (x8)
D|---------------------------------|
A|--------------2------------------|
E|--0-0-0-0-2h3---0-0-0-0-2h3-3-2--|
00:00 / 00:00
Other videos of this song
Repeat
Other videos of this song
Composer not found.
31 views
    • ½ Tone
    • A
    • Bb
    • B
    • C
    • Db
    • D
    • Eb
    • E
    • F
    • F#
    • G
    • Ab
  • Add to list
    00:00 / 00:00
    OK