Cifra Club

Under the tilo's tree

Buenos Muchachos

Cifrado: Principal (guitarra y guitarra eléctrica)
tono: E
GUITARRA 1
E|---------------------------|
B|---------------------------|
G|---------------------------|
D|--6-----6-----6-----6------|
A|------7-----7-----7-----7--|
E|----7-----7-----7-----7----|
GUITARRA 2
E|---------------------------|
B|--0---0---0---0---0---0----|
G|--4---4---4---4---4---4----|
D|--------6-------6-------6--|
A|----7-------7-------7------|
E|---------------------------|

GUITARRA 1
E|---------------------------|
B|---------------------------|
G|---------------------------|
D|--6-----6-----6-----6------|
A|------6-----6-----6-----6--|
E|----7-----7-----7-----7----|
GUITARRA 2
E|---------------------------|
B|--0---0---0---0---0---0----|
G|--4---4---4---4---4---4----|
D|--------6-------6-------6--|
A|----6-------6-------6------|
E|---------------------------|

...Nervios.............siempre
GUITARRA 1
E|---------------------------|
B|---------------------------|
G|---------------------------|
D|--6-----6-----6-----6------|
A|------7-----7-----7-----7--|
E|----7-----7-----7-----7----|
GUITARRA 2
E|---------------------------|
B|--0---0---0---0---0---0----|
G|--4---4---4---4---4---4----|
D|--------6-------6-------6--|
A|----7-------7-------7------|
E|---------------------------|

...nervios....................
GUITARRA 1
E|---------------------------|
B|---------------------------|
G|---------------------------|
D|--6-----6-----6-----6------|
A|------6-----6-----6-----6--|
E|----7-----7-----7-----7----|
GUITARRA 2
E|---------------------------|
B|--0---0---0---0---0---0----|
G|--4---4---4---4---4---4----|
D|--------6-------6-------6--|
A|----6-------6-------6------|
E|---------------------------|

...fibra tensa tensa..........
GUITARRA 1
E|---------------------------|
B|---------------------------|
G|---------------------------|
D|--6-----6-----6-----6------|
A|------5-----5-----5-----5--|
E|----7-----7-----7-----7----|
GUITARRA 2
E|---------------------------|
B|--0---0---0---0---0---0----|
G|--4---4---4---4---4---4----|
D|--------6-------6-------6--|
A|----5-------5-------5------|
E|---------------------------|

...por deber..................
GUITARRA 1
E|---------------------------|
B|---------------------------|
G|---------------------------|
D|--6-----6-----6------------|
A|------4-----4-----4-4-2-0--|
E|----7-----7-----7----------|
GUITARRA 2
E|---------------------------|
B|--0---0---0---0---0---0----|
G|--4---4---4---4---4---4----|
D|--------6-------6-------6--|
A|----4-------4-------4------|
E|---------------------------|

...Hay peso que ganar.........
GUITARRA 1
E|---------------------------|
B|---------------------------|
G|---------------------------|
D|--6-----6-----6-----6------|
A|------7-----7-----7-----7--|
E|----7-----7-----7-----7----|
GUITARRA 2
E|---------------------------|
B|--0---0---0---0---0---0----|
G|--4---4---4---4---4---4----|
D|--------6-------6-------6--|
A|----7-------7-------7------|
E|---------------------------|
GUITARRA 3
E|------7---9-7-----7---9-7--|
B|----9---9-------9---9------|
G|--9-----------9------------| (x2)
D|---------------------------|
A|---------------------------|
E|---------------------------|

...y el sol te fritara........
GUITARRA 1
E|---------------------------|
B|---------------------------|
G|---------------------------|
D|--6-----6-----6-----6------|
A|------6-----6-----6-----6--|
E|----7-----7-----7-----7----|
GUITARRA 2
E|---------------------------|
B|--0---0---0---0---0---0----|
G|--4---4---4---4---4---4----|
D|--------6-------6-------6--|
A|----6-------6-------6------|
E|---------------------------|
GUITARRA 3
E|------7---9-7-----7---9-7--|
B|----9---9-------9---9------|
G|--8-----------8------------| (x2)
D|---------------------------|
A|---------------------------|
E|---------------------------|

...tus ramas de dendritas.....
GUITARRA 1
E|---------------------------|
B|---------------------------|
G|---------------------------|
D|--6-----6-----6-----6------|
A|------5-----5-----5-----5--|
E|----7-----7-----7-----7----|
GUITARRA 2
E|---------------------------|
B|--0---0---0---0---0---0----|
G|--4---4---4---4---4---4----|
D|--------6-------6-------6--|
A|----5-------5-------5------|
E|---------------------------|
GUITARRA 3
E|------7------------7---------|
B|----9-----10-9---9-----10-9--|
G|--7-----7------7-----7-------| (x2)
D|-----------------------------|
A|-----------------------------|
E|-----------------------------|


...otra vez...................
GUITARRA 1
E|---------------------------|
B|---------------------------|
G|---------------------------|
D|--6-----6-----6------------|
A|------4-----4-----4-4-2-0--|
E|----7-----7-----7----------|
GUITARRA 2
E|---------------------------|
B|--0---0---0---0---0---0----|
G|--4---4---4---4---4---4----|
D|--------6-------6-------6--|
A|----4-------4-------4------|
E|---------------------------|
GUITARRA 3
E|---------------------------|
B|-------9---9------9---9----|
G|--6------6---6------6------| (x2)
D|---------------------------|
A|---------------------------|
E|---------------------------|

...Hasta que
me senté con él
me dio su sombra fresca
suavizándome
Todo va mejor
gas de tilo que calmó
ya no estaba loco
es un milagro
miracle...

GUITARRA 1 - distorcion
E|------------------------|
B|------------------------|
G|--4-4-4-4-4-4-4-4-4-4---|
D|--6-6-6-6-6-6-6-6-6-6---|
A|--6-6-6-6-6-6-6-6-6-6---|
E|--4-4-4-4-4-4-4-4-4-4---|
GUITARRA 2 - distorcion
E|------------------------|
B|--9-----9-11-12-11-9----|
G|-----8------------------|
D|------------------------|
A|------------------------|
E|------------------------|

GUITARRA 1 - distorcion
E|------------------------|
B|------------------------|
G|--4-4-4-4-4-4-4-4-4-4---|
D|--6-6-6-6-6-6-6-6-6-6---|
A|--6-6-6-6-6-6-6-6-6-6---|
E|--4-4-4-4-4-4-4-4-4-4---|
GUITARRA 2 - distorcion
E|------------------------|
B|------------------------|
G|--8| —6h8-8-8---—6h8-8-8--
D|------------------------|
A|------------------------|
E|------------------------|

GUITARRA 1 - distorcion
E|------------------------|
B|------------------------|
G|--4-4-4-4-4-4-4-4-4-4---|
D|--6-6-6-6-6-6-6-6-6-6---|
A|--6-6-6-6-6-6-6-6-6-6---|
E|--4-4-4-4-4-4-4-4-4-4---|
GUITARRA 2 - distorcion
E|------------------------|
B|------------------------|
G|------------------------|
D|--6-----------6-8/9-8---|
A|------------------------|
E|------------------------|
GUITARRA 1 - distorcion
E|------------------------|
B|------------------------|
G|--4-4-4-4-4-4-4-4-4-4---|
D|--6-6-6-6-6-6-6-6-6-6---|
A|--6-6-6-6-6-6-6-6-6-6---|
E|--4-4-4-4-4-4-4-4-4-4---|
GUITARRA 2 - distorcion
E|------------------------|
B|------------------------|
G|------------------------|
D|-------4h6-6-6--4h6-6-6-|
A|--6---------------------|
E|------------------------|

...Hoy gané senti el gas...
E|------------------------|
B|------------------------|
G|------------------------|
D|------------------------|
A|--------6---6-5---5-6---|
E|--4---4-----------------|

...y sople el rayo si......
E|------------------------|
B|------------------------|
G|------------------------|
D|---------------4-6-7----|
A|-----------4------------|
E|------------------------|

...me saque el rayo si.....
E|------------------------|
B|------------------------|
G|------------------------|
D|---7--9--11------12-11--|
A|------------------------|
E|------------------------|

...y a cagar...............
E|------------------------|
B|------------------------|
G|------------------------|
D|-----9------------------|
A|------------------------|
E|------------------------|

PAUSA

E|------6-----6-----7-----7--|
B|----9-----9-----9-----9----|
G|--8-----8-----8-----8------| (x4)
D|---------------------------|
A|---------------------------|
E|---------------------------|

...Ooooooouuuuuuuuooooooooo...
E|---------------------------|
B|----7---7---7--/5---5---5--|
G|--8---8---8--/6---6---6----|
D|---------------------------|
A|---------------------------|
E|---------------------------|

...Ooooooouuuuuuuuooooooooo...
E|---------------------------|
B|---/4---4---4--/2---2---2--|
G|-/4---4---4--/2---2---2----|
D|---------------------------|
A|---------------------------|
E|---------------------------|

...Ooooooouuuuuuuuooooooooo....
E|----------------------------|
B|---/7---7---7--/10--10--10--|
G|-/8---8---8--/11--11--11----|
D|----------------------------|
A|----------------------------|
E|----------------------------|

...Ooooooouuuuuuuuooooooooo....
E|----------------------------|
B|---/9----9----9--/7---7---7-|
g |/11---11---11--/9---9---9---
D|----------------------------|
A|----------------------------|
E|----------------------------|
00:00 / 00:00
Otros videos de esta canción
Repetir
Otros videos de esta canción
Compositor no encontrado.
6 exhibiciones
    • ½ Tono
    • A
    • Bb
    • B
    • C
    • Db
    • D
    • Eb
    • E
    • F
    • F#
    • G
    • Ab
  • Agregar a la lista
    00:00 / 00:00
    OK