Cifra Club

Y la nave va

Buenos Muchachos

Cifrado: Principal (guitarra y guitarra eléctrica)
tono: Fm
    Fm                       C#
E|---------------------------------|
B|-----8-9--11-13--14-13-11-13/14--|
G|-10------------------------------|
D|---------------------------------|
A|---------------------------------|
E|---------------------------------|

          A#m       C#  G#  D#    A#m
E|-16-15-13--13-15-16----------------------|
B|---------------------16--11--9-11-13-11--|
G|-----------------------------------------|
D|-----------------------------------------|
A|-----------------------------------------|
E|-----------------------------------------|

    C#  G#       D#    A#m
E|------------------------------------------|
B|-14--16-14-13-11--9-11-13-11--9-11-13-11--|
G|------------------------------------------|
D|------------------------------------------|
A|------------------------------------------|
E|------------------------------------------|

   Fm
...Humo blanco, perdio el encanto...

      C#
...viajando en un tiempo fugaz......


D PITE ACORDES HASTA ESTRIBILLO


A#m               C#    G#   D#  A#m
......Y pienso en no volver.........  [x2]

    Fm            C#       Fm
E|-------------------------------|
B|-------------------------------|
G|----------------------6-6p5----|
D|-----------------3-6--------3--|
A|-----------1-3-4---------------|
E|-1--3--4-----------------------|

                     C#
E|----------------------------------|
B|----------------------------------|
G|----------------------------------|
D|-3-5-6--6-6-8-6-3-----------------|
A|------------------4--1-3-4--------|
E|----------------------------1-3-4-|

   Fm
...Levanto vuelo, no muy alto...

   C#
...solo para ver mejor......


D PITE ACORDES HASTA ESTRIBILLO


A#m               C#    G#   D#  A#m
......Y pienso en no volver.........  [x2]

    Fm         C#         Fm
E|-13---16-15------16-15------|
B|------------14---------13---|
G|----------------------------|
D|----------------------------|
A|----------------------------|
E|----------------------------|

                       C#
E|-16-15--16-15--16-15--------|
B|------13-----13-----13--14--|
G|----------------------------|
D|----------------------------|
A|----------------------------|
E|----------------------------|

                   Fm
E|----------------------------|
B|-18/16/14/13/11/13----------|
G|----------------------------|
D|----------------------------|
A|----------------------------|
E|----------------------------|

                             C#
E|----------------------------|
B|-9-11-13-14-13-11-9-8-9-8-6/|
G|----------------------------|
D|----------------------------|
A|----------------------------|
E|----------------------------|

                    Fm
E|----------------------------|
B|-8/9/2-1--------------------|
G|---------3-5-6-5------------|
D|-----------------3--5-6-5---|
A|----------------------------|
E|----------------------------|

          C#
E|----------------------------|
B|----------------------------|
G|----------------------------|
D|-3-5-6----------------------|
A|-------4----------------1---|
E|----------------------------|

    A#m           C#  G#  D#  A#m
......Y pienso en no volver.........
E|---------------------------------|
B|---------------------------------|
G|-------------------3---5---3-1-3-|
D|-3-------------6-----------------|
A|---------------------------------|
E|---------------------------------|

    C#  G#  D#  A#m
....no volver..................
E|----------------------------|
B|----------------------------|
G|---------3---5---3-1-3------| (x3)
D|-3---6----------------------|
A|----------------------------|
E|----------------------------|

       Fm              C#
In the sun, I was your help

    Fm                        C#
E|------------------------------|
B|-13-13-13-13-13-13-13-13-13/6-|
G|-13-13-13-13-13-12-12-12-13/6-|
D|-13-13-13-13-13-13-13-13-13/6-|
A|------------------------------|
E|------------------------------|
00:00 / 00:00
Otros videos de esta canción
Repetir
Otros videos de esta canción
Composición de Pedro Dalton
41 exhibiciones
    • ½ Tono
    • Am
    • Bbm
    • Bm
    • Cm
    • C#m
    • Dm
    • Ebm
    • Em
    • Fm
    • F#m
    • Gm
    • G#m
  • Agregar a la lista
    00:00 / 00:00
    OK