Cifra Club

Mi Misil

Bufón

Cifrado: Principal (guitarra y guitarra eléctrica)
tono: D
E|----------------------------------------------------------|
B|------9---9h11-9b-------9---11h13-11b-------9---9h11-9b---|
G|--8-8---8----------8-8---8------------8-8---8-------------|
D|----------------------------------------------------------|
A|----------------------------------------------------------|
E|----------------------------------------------------------|

E|--------------------|
B|-8h9p8-6-4-6-4------|
G|--------------------| x2
D|--------------------|
A|--------------------|
E|--------------------|

Yo también tengo un misil      /
Viene dirigido a ti.           /  -= Riff 1 =-
No es tan lindo como el tuyo   /
Pero sabe ser feroz.           /

A veces se escapa -= Riff 2 =-  /
Y se va a tomar por ahí,       /  -= Riff 1 =-
Y vuelve tan duro -= Riff 2 =-  /
Que ya no se quiere dormir.    /

Yo también pinté el misil      /
Para verlo desde aquí.         /  -= Riff 3 =-
Cuando el vuela tan alto       /
Yo lo observo y soy feliz.     /

Y vuelve muy triste -= Riff 2 =- /
Diciendo que no lo hace más,   /  -= Riff 3 =-
Y a él su trabajo -= Riff 2 =-  /
Algún día lo va matar.         /

B                  A#
Y yo te quiero regalar
                      A         G A# B
Algo que nunca te puede faltar.
                     A#
Y vos no vas a reclamar
                      A
Sólo la muerte te lo va quitar.


E|---------------------------------------------------------|
B|------9---9h11-9b-------9---11h13-11b-------9---9h11-9b--|
G|--8-8---8----------8-8---8------------8-8---8------------|
D|---------------------------------------------------------|
A|---------------------------------------------------------|
E|---------------------------------------------------------|

E|--------------------|
B|-8h9p8-6-4-6-4------|
G|--------------------| x2
D|--------------------|
A|--------------------|
E|--------------------|

Yo lo peino a mi misil                /
Porque él sale en la TV.              /  -= Riff 1 =-
Cuando él surca los cielos            /
Casi siempre es la vedette.           /

Se enoja y no entiende -= Riff 2 =-    /
Porque lo quieren derribar,           /  -= Riff 1 =-
Si es un misil guacho -= Riff 2 =-     /
Y nunca el va a reventar.             /

Yo me miro en el espejo               /
Y no puedo comprender                 /  -= Riff 3 =-
Que mi mente este tan lejos           /
Tratando de ver porqué.               /

Si hay tanto demente -= Riff 2 =-      /
Queriendo verme infeliz               /  -= Riff 3 =-
Por eso de noche -= Riff 2 =-          /
Yo siempre cargo a mi misil.          /

B                  A#
Y yo te quiero regalar
                      A         G A# B
Algo que nunca te puede faltar.
                     A#
Y vos no vas a reclamar
                      A
Sólo la muerte te lo va quitar.

G  O:
E|--------------------------------------------------|
B|-------8--8h11-8------8b--------8-8h11-8----------|
G|--8-10-----------10-8-----8-10----------10-8-8b---|
D|--------------------------------------------------|
A|--------------------------------------------------|
E|--------------------------------------------------|

E|---------------------*-------|
B|-------8-8h11-8------*-------|
G|--8-10----------10-8-*-------|
D|---------------------8-------|
A|---------------------6-------|
E|---------------------*-------|

E|---------------------------------------------------------|
B|------9---9h11-9b-------9---11h13-11b-------9---9h11-9b--|
G|--8-8---8----------8-8---8------------8-8---8------------|
D|---------------------------------------------------------|
A|---------------------------------------------------------|
E|---------------------------------------------------------|

E|--------------------|
B|-8h9p8-6-4-6-4------|
G|--------------------| x2
D|--------------------|
A|--------------------|
E|--------------------|


Mi misil se fue de aquí       /
Porque tipo se casó.          / Sin guitarra
Se fue con la chica bomba     /
Que trabaja en Telavip.       /

    D#           D#
Me cuentan sus cartas
Todo el trabajo que hay ahí,
         D#       D#
Que hay tipos muy malos
     D#                       D#
Siempre invadiendo algún país
          D
Para dominarlos,
          C#
Para dominarme,
                  D#
Para dominarte a ti.

========================================================

Riff 1:
E|---------------------------------| /
B|---------------------------------| /
G|--8--8--8--8--8--8--8-5-3-1------| x4  / 1er. guitarra
D|---------------------------------| /
A|---------------------------------| /
E|---------------------------------| /

Riff 2:
E|------------------| /
B|------------------| /
G|------------------| x2  /  2da. guitarra
D|------6------6----| /
A|--6-8----6-8------| /
E|------------------| /

Riff 3:
E|-------------------------------| /
B|--6--6--6--6--6--6-------------| /
G|--8--8--8--8--8--8--8-5-3-1----| x4 / 1er. guitarra
D|-------------------------------| /
A|-------------------------------| /
E|-------------------------------| /
00:00 / 00:00
Otros videos de esta canción
Repetir
Otros videos de esta canción
Compositor no encontrado.
    • ½ Tono
    • A
    • Bb
    • B
    • C
    • Db
    • D
    • Eb
    • E
    • F
    • F#
    • G
    • Ab
  • Agregar a la lista
    00:00 / 00:00
    OK