Cifra Club

El Instrumento

Buitres

Cifrado: Principal (guitarra y guitarra eléctrica)
tono: Bb
   G          A#    F     D#         G       A#     F
E|----------------------------------------------------------|
B|----------------------------------------------------------|
G|----------------------------------------------------------|
D|--------8-10-12-12-12-12-12-12-10-8-10-8----8-------------|
A|--10-10----------------------------------10---10-8-10-8---|
E|----------------------------------------------------------|

E|-----------------------------------------------------3----|
B|-----------------------------------------------------3----|
G|-----------7-8-10-10-8-7-5-8-7-5-3-5-3---3-----------3----|
D|------8-10-----------------------------5---5-3-5-3---5----|
A|---10------------------------------------------------5----|
E|-----------------------------------------------------3----|
00:00 / 00:00
Otros videos de esta canción
Repetir
Otros videos de esta canción
Composición de Washington Benavidez
9 vistas
    • ½ Tono
    • A
    • Bb
    • B
    • C
    • Db
    • D
    • Eb
    • E
    • F
    • F#
    • G
    • Ab
  • Agregar a la lista

    0 comentarios

    Ver todos los comentarios

    ¿Lograste tocar?

    0 Tocaron 0 Aún no

    ¡Graba un video tocando El Instrumento y envíanoslo!

    00:00 / 00:00
    OK