Cifra Club

Waking The Demon

Bullet For My Valentine

Cifrado: Principal (guitarra y guitarra eléctrica)
tono: G (con acordes en la forma de A) Afinación: D G C F A D
Intro:(0:00 0:38)
D|----------------------------------|
A|----------------------------------|
F|----------------------------------|
C|----------------------------------|
G|-------5p4-----7p4----------------|
C|-4-4-4-----4-4-----4-4--5p4--7p4--|

D|----------------------------------|
A|----------------------------------|
F|----------------------------------|
C|----------------------------------|
G|-------5p4-----7p4------5---7-----|
C|-4-4-4-----4-4-----4-4--5---7-----|

D|----------------------------------|
A|----------------------------------|
F|----------------------------------|
C|----------------------------------|
G|-------5p4-----7p4----------------|
C|-4-4-4-----4-4-----4-4--5p4--7p4--|

D|----------------------------------|
A|----------------------------------|
F|-----------------7p4-6p4----------| 
C|-------------------------7p4------|
G|-------5p4-------------------7p4--| (5x essa intro) 
C|-4-4-4------4-4-------------------|

Primeiro Refrão (0:41 0:56)
(Repete a intro duas vezes)

D|----------------------------------|
A|----------------------------------|
F|----------------------------------|
C|----------------------------------|
G|-------5p4-----7p4----------------|
C|-4-4-4-----4-4-----4-4--5p4--7p4--|

D|----------------------------------|
A|----------------------------------|
F|----------------------------------|
C|----------------------------------|
G|-------5p4-----7p4------5---7-----|
C|-4-4-4-----4-4-----4-4--5---7-----|

D|----------------------------------|
A|----------------------------------|
F|----------------------------------|
C|----------------------------------|
G|-------5p4-----7p4----------------|
C|-4-4-4-----4-4-----4-4--5p4--7p4--|

D|----------------------------------|
A|----------------------------------|
F|-----------------7p4-6p4----------| 
C|-------------------------7p4------|
G|-------5p4-------------------7p4--| 
C|-4-4-4------4-4-------------------|

Waking the demon....(01:03)
D|----------------------------------|
A|----------------------------------|
F|----------------------------------|   (2x)
C|---4---0---2----------------------|
G|---4---0---2----------------------|
C|---4---0---2----------------------|

D|----------------------------------|
A|----------------------------------|
F|----------------------------------|   (2x)(1:12 1:24)
C|----------------------------------|
G|--5--4--9--7--5-------------------|
C|----------------------------------|

D|----------------------------------|
A|----------------------------------|
F|----------------------------------|  (1:25)
C|--0------3*-----------------------|
G|--0-------------------------------|
C|--0-------------------------------|

Segundo Refrão (1:26 1:41)
(Repete a primeira parte 2x)

 Refrão

Waking the demon....(1:56 2:10)
D|----------------------------------|
A|----------------------------------|
F|----------------------------------|   (2x)
C|----------------------------------|
G|--5--4--9--7--5-------------------|
C|----------------------------------|

(02:10 2:26)
D|----------------------------------|
A|----------------------------------|
F|----------------------------------|   (4x)
C|---0---2---4----------------------|
G|---0---2---4----------------------|
C|---0---2---4----------------------|

Solo (2x)(2:10 2:40)

D|------------------------------------|
A|-----/10-9---10------/10-9---10-----|
F|-----------9----9----------9----11--|
C|--0---------------------------------|
G|--0---------------------------------|
C|--0---------------------------------|

D|----------------------------------|
A|-/10-9---10---12---10---9---10----|
F|-------9----9----9----9---9----9--|
C|----------------------------------|
G|----------------------------------|
C|----------------------------------|

D|------------------------------------|
A|-----/10-9---10------/10-9---10-----|
F|-----------9----9----------9----11--|
C|--0---------------------------------|
G|--0---------------------------------|
C|--0---------------------------------|

D|----------------------------------|
A|-/10-9---10---12---10---9---10----|
F|-------9----9----9----9---9----9*-|
C|----------------------------------|
G|----------------------------------|
C|----------------------------------|

(02:41 02:55)
D|--------------------------------|
A|--------------------------------|
F|--------------------------------|
C|-4--4-4-4----4-4-4--------------|
G|-4--4-4-4----4-4-4--------------|
C|-4--4-4-4----4-4-4--------------|

D|--------------------------------|
A|--------------------------------|
F|--------------------------------|
C|---4-4-4------------------------|
G|---4-4-4------------------------|
C|---4-4-4------------------------|

D|--------------------------------|
A|--------------------------------|
F|--------------------------------|
C|--------------------------------|
G|---4-4-4p5--4-4-4p5-4-4-4p5-4p7-|
C|---4-4-4p5--4-4-4p5-4-4-4p5-4p7-|

D|--------------------------------|
A|--------------------------------|
F|--------------------------------|
C|--------------------------------|
G|---4-4-4p5--4-4-4p5-4-4-4p5-4p7-|
C|---4-4-4p5--4-4-4p5-4-4-4p5-4p7-|

Base do Solo (Matt Tuck):
(02:56 03:10)
D|----------------------------------|
A|----------------------------------|
F|----------------------------------|
C|----------------------------------|
G|-------5p4-----7p4----------------|
C|-4-4-4-----4-4-----4-4--5p4--7p4--|

D|----------------------------------|
A|----------------------------------|
F|----------------------------------|
C|----------------------------------|
G|-------5p4-----7p4------5---7-----|
C|-4-4-4-----4-4-----4-4--5---7-----|

D|----------------------------------|
A|----------------------------------|
F|----------------------------------|
C|----------------------------------|
G|-------5p4-----7p4----------------|
C|-4-4-4-----4-4-----4-4--5p4--7p4--|

D|----------------------------------|
A|----------------------------------|
F|-----------------7p4-6p4----------|
C|-------------------------7p4------|
G|-------5p4-------------------7p4--|
C|-4-4-4------4-4-------------------|

Solo (2:55 3:10)(Michael Paget)

D|------------------17b-------17-21-17-16-17---------------------------------|
A|-----17b--17--------------------------------17-----------------------------|
F|--------------16--------------------------------16--14---------------------|
C|---------------------------------------------------------------------------|
G|---------------------------------------------------------------------------|
C|---------------------------------------------------------------------------|

D|---------------------------------------------------------------------------|
A|------------9-10-------10-12-9-10-12-14-10-12-14---15-12-14-15-17-15-17----|
F|----13-9-11------11-13-----------------------------------------------------|
C|---------------------------------------------------------------------------|
G|---------------------------------------------------------------------------|
C|---------------------------------------------------------------------------|

D|----14-19b--19b--17-19-17-16-17-16-14-16-----------------------------------|
A|------------------------------------------14-------------------------------|
F|---------------------------------------------------------------------------|
C|---------------------------------------------------------------------------|
G|---------------------------------------------------------------------------|
C|---------------------------------------------------------------------------|
(Essa parte usa o tap)
     (8x)     (8x)        (Para com o tap nessa parte)
D|---17-14---16-13-----------------------------------------------------------|
A|---------------------------------------------------------------------------|
F|----------------------19-18-16-18-16-14-16-14-13-14-13-11-13-11-9----------|
C|---------------------------------------------------------------------------|
G|---------------------------------------------------------------------------|
C|---------------------------------------------------------------------------|

Continuação do Solo (3:10 3:23) 


 Guitar 1 (Michael Paget)
D|---12p9----9--12p9-12p9----9--12p9-12p9----9--10p7-----10p7-10p7---10p7-9p7----7----|
A|--------10--------------10--------------10----------9------------9-----------9------|
F|------------------------------------------------------------------------------------|
C|------------------------------------------------------------------------------------|
G|------------------------------------------------------------------------------------|
C|------------------------------------------------------------------------------------|

D|---12p9----9--12p9-12p9----9--12p9-12p9----9--10p7-----10p7-10p7---10p7-10p7---7----|
A|--------10--------------10--------------10----------9------------9-----------9------|
F|------------------------------------------------------------------------------------|
C|------------------------------------------------------------------------------------|
G|------------------------------------------------------------------------------------|
C|------------------------------------------------------------------------------------|

D|---12p9-----9-12p9-12p9----9-12p9-12p9----9---12b--------------------------|
A|---------10-------------10-------------10----------------------------------|
F|---------------------------------------------------------------------------|
C|---------------------------------------------------------------------------|
G|---------------------------------------------------------------------------|
C|---------------------------------------------------------------------------|

Guitar 2 (Matt Tuck)
D|---17p12----12-17p12-17p12----12-17p12-17p12-----12------------------------|
A|---------14----------------14----------------14----------------------------|
F|---------------------------------------------------------------------------|
C|---------------------------------------------------------------------------|
G|---------------------------------------------------------------------------|
C|---------------------------------------------------------------------------|

D|---14p10----10-14p10-14p10----10-14p10-14p10----10-------------------------|
A|---------12----------------12----------------12----------------------------|
F|---------------------------------------------------------------------------|
C|---------------------------------------------------------------------------|
G|---------------------------------------------------------------------------|
C|---------------------------------------------------------------------------|

D|---17p12----12-17p12-17p12----12-17p12-17p12-----12------------------------|
A|---------14----------------14----------------14----------------------------|
F|---------------------------------------------------------------------------|
C|---------------------------------------------------------------------------|
G|---------------------------------------------------------------------------|
C|---------------------------------------------------------------------------|

D|---14p10----10-14p10-14p10----10-14p10-14p10----10-------------------------|
A|---------12----------------12----------------14----------------------------|
F|---------------------------------------------------------------------------|
C|---------------------------------------------------------------------------|
G|---------------------------------------------------------------------------|
C|---------------------------------------------------------------------------|

D|---14p10----10-14p10-14p10----10-14p10-14p10----10-------------------------|
A|---------12----------------12----------------12----------------------------|
F|---------------------------------------------------------------------------|
C|---------------------------------------------------------------------------|
G|---------------------------------------------------------------------------|
C|---------------------------------------------------------------------------|

D|---17p12----12-17p12-17p12----12-17p12-17p12-----12---17b-----------------------|
A|---------14----------------14----------------14---------------------------------|
F|--------------------------------------------------------------------------------|
C|--------------------------------------------------------------------------------|
G|--------------------------------------------------------------------------------|
C|--------------------------------------------------------------------------------|

(03:17 3:23) (Uma terceira guitarra que da para perceber durante o solo)
D|----------------------------------|
A|----------------------------------|
F|----------------------------------|
C|----------------------------------|
G|--5--4--9--7--5-------------------|
C|----------------------------------|

Breath for me.... (03:26 03:54)

D|------------------------------------|
A|-----/10-9---10------/10-9---10-----|
F|-----------9----9----------9----11--|
C|--0---------------------------------|
G|--0---------------------------------|
C|--0---------------------------------|

D|----------------------------------|
A|-/10-9---10---12---10---9---10----|
F|-------9----9----9----9---9----9--|
C|----------------------------------|
G|----------------------------------|
C|----------------------------------|

D|------------------------------------|
A|-----/10-9---10------/10-9---10-----|
F|-----------9----9----------9----11--|
C|--0---------------------------------|
G|--0---------------------------------|
C|--0---------------------------------|

D|----------------------------------|
A|-/10-9---10---12---10---9---10----|
F|-------9----9----9----9---9----9*-|
C|----------------------------------|
G|----------------------------------|
C|----------------------------------|

Final (03:55 04:02)

D|----------------------------------|
A|----------------------------------|
F|----------------------------------|
C|----------------------------------|
G|-------5p4-----7p4----------------|
C|-4-4-4-----4-4-----4-4--5p4--7p4--|

D|----------------------------------|
A|----------------------------------|
F|----------------------------------|
C|----------------------------------|
G|-------5p4-----7p4------5---7-----|
C|-4-4-4-----4-4-----4-4--5---7-----|

D|----------------------------------|
A|----------------------------------|
F|----------------------------------|
C|----------------------------------|
G|-------5p4-----7p4----------------|
C|-4-4-4-----4-4-----4-4--5p4--7p4--|

D|----------------------------------|
A|----------------------------------|
F|-----------------7p4-6p4----------| 
C|-------------------------7p4------|
G|-------5p4-------------------7p4--|  
C|-4-4-4------4-4-------------------|

Waking The Demon
D|----------------------------------|
A|----------------------------------|
F|----------------------------------| 
C|---2-2-2-2------------------------|
G|---2-2-2-2------------------------|  
C|---2-2-2-2------------------------|
Composición de Bullet for My Valentine / Matthew Tuck
Colaboración y revisión:
6.314 vistas
    • ½ Tono
    • A
    • Bb
    • B
    • C
    • Db
    • D
    • Eb
    • E
    • F
    • F#
    • G
    • Ab
  • Agregar a la lista

    0 comentarios

    Ver todos los comentarios
    00:00 / 00:00
    Outros vídeos desta música
    Repetir Calidad Automático
    Outros vídeos desta música
    00:00 / 00:00
    Automático
    OK