Cifra Club

Janakya Mottainai

Buono

Cifrado: Principal (guitarra y guitarra eléctrica)
Selo Cifra Club: esta cifra foi revisada para atender aos critérios oficiais da nossa Equipe de Qualidade.
tono: Dm
E|----------------------------------------|
B|----------------------------------------|
7-7-xxx-5-7-xxxx-5-7--xxxx-5-7-7-xxxx-5-|
7-7-xxx-5-7-xxxx-5-7--xxxx-5-7-7-xxxx-5-|
E|5-5-xxx-3-5-xxxx-3-5--xxxx-3-5-5-xxxx-3-|
B|----------------------------------------|
 riff                             x4

after 2nd riff:
E|-----------------------------------------------------------------------------|
B|-----------------------------------------------------------------------------|
G|-----------5-7---------------------------------------------------------------|
D|-----3-5-7---------5h6p5-3-5-3-----------------------------------------------|
A|-5v----------------------------5vvvv-----------------------------------------|
E|---------------x3------------------------------------------------------------|
pm===========>


D          Dm                D
Araamu jiriri beddo kara hirari
               Dm    A           D
Maegami wo kururi koode wa bacchiri
D             Dm                 G
Gurosu de kirari asa gohan bacchiri
              F        C         Bb
Onna no ko wa are kore isogashii no
      Dm            Bb A
haran ga (haran ga) banjoo!!


Dakedo
  D  A       D
Mune hatte yukou
  A           G             A
Wagamama demo ii desho ne?! Sou desho?
  G            A
Suki na koto dake ga suki
D     A            D      G           Gm
Zekkoochoo saa harikitte kyou mo sutaato
     D           Dm
waratteru hou ga ii
  A           D
Janakya mottainai jan
Dm            D
Janakya mottainai


D          Dm                D
Dasshu de kurari ano hito ni dokiri
               Dm    A           D
raibaru ga girari tsumazuite kokeri
D          Dm                G
Tesuto sappari peke maaku zurari
              F        C         Bb
onna no ko wa itsu demo tafu janakucha
    Dm          Bb  A
Kantan (Kantan) meiryoo!!

Dakara
  D  A       D
Massugu ni yukou
  A           G             A
subette mo ii desho ne?! Sou desho?
  G            A
Ikeru tokoro made ikou
D     A            D      G           Gm
Kinou no tesuto yori mo ashita no ranchi
     D           Dm
Maemuki ga ichiban
  A           D
Sore ja dame kana?
Dm           D
Sore de ii jan

G  O
E|------------------------------|---------------------|-----------------------|
B|-16b18vv---18-16p15-16-15brbr-|-13-15b--1315b-1315b-|-13-15b--13p11-13------|
G|------------------------------|---------------------|------------------14v--|
D|------------------------------|---------------------|-----------------------|
A|------------------------------|---------------------|-----------------------|
E|------------------------------|---------------------|-----------------------|

E|---------------------------------|----------------------------------------|--|
B|---------------------------------|----------------------------------------|--|
G|-16b17-171717-17\16\14\12\10-----|-7/10-10----10----10-12-12b-12101210----|--|
D|-16b17-----------------------12v-|-7/10-10----10-12--------------------12-|--|
A|---------------------------------|---------12-----------------------------|--|
E|---------------------------------|----------------------------------------|--|

E|-17b18---------------------------|--------------------1818-16-18b20-16------|
B|-------19------------------------|-----------------17---------18b20----18v--|
G|----------17v--14-15v--14-15-15b-|-15-14-----14-17--------------------------|
D|---------------------------------|-------15---------------------------------|
A|---------------------------------|------------------------------------------|
E|---------------------------------|------------------------------------------|

E|-t-----t-----------|--t-----t----------|-t-----t----------| |-t-----------||--|
B|-11-10-11-10p8-t---|-13-10-13-10p8-t---|-18-15-18-15p13t--| |-18-15p13-t--||--|
G|---------------10--|---------------10--|---------------14-| |----------14-||--|
D|-------------------|-------------------|------------------| |-------------||--|
A|-------------------|-------------------|------------------| |-------------||--|
E|-------------------|-------------------|-------------x2---| |---------x2--||--|

E|--20b22r20----20b22-|--------------------------------------------------------|
B|--20b22r20-20-20b22-|--------------------------------------------------------|
G|--------------------|--------------------------------------------------------|
D|--------------------|--------------------------------------------------------|
A|--------------------|--------------------------------------------------------|
E|--------------------|--------------------------------------------------------|

Dakara
D    A         D
Mune hatte yukou
  A           G             A
Wagamama demo ii desho ne?! Sou desho?
  G            A
Suki na koto dake ga suki
D     A            D      G           Gm
Zekkoochoo saa harikitte kyou mo sutaato
     D           Dm
waratteru hou ga ii
  A           D
Janakya mottainai jan
Dm            D
Janakya mottainai
Otros videos de esta canción
    25 exhibiciones
      • ½ Tono
      • Am
      • Bbm
      • Bm
      • Cm
      • C#m
      • Dm
      • Ebm
      • Em
      • Fm
      • F#m
      • Gm
      • G#m
    • Agregar a la lista

    Afinación de cifrado

    Afinador online

      OK