Cifra Club

Natsu Dakara

Buono

Cifrado: Principal (guitarra y guitarra eléctrica)
Selo Cifra Club: esta cifra foi revisada para atender aos critérios oficiais da nossa Equipe de Qualidade.
tono: F
C/G   302010

INTRO:
F            C
Itsumo itsudatte
Dm              Am
Dokoni itato shitemo
      Bb           Am
Subete PURASU ni kaete miseru
      Gm
Nante ieru

C         C    C/B  C/A  C/G
Natsu dakara !
         (blue blue blue sky)
      C    C/B  C/A  C/G
Negau yo
     (blue blue sunshine)
       C    C/B  C/A  C/G C    C/B  C/A  C/G
Ashita wa
      (blue blue blue sky blue blue sunshine)

F            C
Kono mune no MOYAMOYA tachi
Dm         Am
Nyudougumo no you ni
      Bb    Am  Gm          C
Ame wo sasoi   nakitashisou dayo

F            C
Hisashiburi dane C RAIBU
Dm         Am
Anata nanika kanjite
      Bb    Am  Gm          C C#
DASSHUBOOC  no KYANDII kuretano

E|----------------|
B|-------------7--|
G|-5---5-6---7----|
D|---5-----7------|
A|----------------|
E|----------------|

EDD LE:
E|--------------------------------------------------------------------------|
B|--------------------------------------------------------------------------|
G|-7-7------------8-8----2-2------------8-8---------------------------------|
D|-7-7------------8-8----2-2------------8-8---------------------------------|
A|-5-5---5---5--5-6-6----0-0---0---0--0-6-6-------------------6--6--6-5-4-3-|
E|---------5---------------------0-------------3--5---/6--8-----------------|
Kaze ni  tonjauyo fuusen          Mou ! Chanto motto kitsuku nigiri shimete

F          C
Itsumo itsudatte (dakara!)
Dm        Am
Dokoni itato shitemo (dakara!)
Bb               Am
Sora wo miagete omou koto wa
Gm               C
Issho de itai yo ne (natsu dakara!)

F          C
Anata furimuite (dakara!)
Dm        Am
Dokoni itato shitemo (dakara!)
Bb                 Am
Kimi no mirai wo mitsumeteiru
Gm
Kono kokoro wa

C         C    C/B  C/A  C/G
Sora ni aru
        (blue blue blue sky)
     C    C/B  C/A  C/G
Omoi wa
    (blue blue sunshine)
        C    C/B  C/A  C/G C    C/B  C/A  C/G
Hitotsu sa
       (blue blue blue sky blue blue sunshine)

F            C
Atte kara juu go fun de
Dm         Am
Nanka otona ni nacchata yo
      Bb    Am  Gm          C
Omou koto no hanbun mo iezuni

E|----------------|
B|-------------7--|
G|-5---5-6---7----|
D|---5-----7------|
A|----------------|
E|----------------|

EDD LE:
E|--------------------------------------------------------------------------|---|
B|--------------------------------------------------------------------------|---|
G|-7-7------------8-8----2-2------------8-8---------------------------------|---|
D|-7-7------------8-8----2-2------------8-8---------------------------------|---|
A|-5-5---5---5--5-6-6----0-0---0---0--0-6-6-------------------6--6--6-5-4-3-|---|
E|---------5---------------------0-------------3--5---/6--8-----------------|---|
Jama wo shitakunai kimochi to               Jama wo shitai kimochi Tatakatteta

F          C
Itsumo itsudatte (dakara!)
Dm                Am
Doko ni ita to shite mo (dakara!)
Bb                 Am
Kaze ni fukarete omou koto wa
Gm               C
Issho de itai yo ne (natsu dakara!)

F          C
Watashi doushitano ? (dakara!)
Dm        Am
Konna wagamama dakke (dakara!)
Bb                 Am
Mienu onna ni nacchaisou
Gm
Kono kokoro wa natsu dakara !

G  O:
-||--------------------------|-------------------------||-------------------|
-||--------------------------|-------------------------||-------------------|
-||--------------------------|-------------------------||-------------------|
-||--------------------------|-------------------------||-------------------|
-||-8-8-----8-8-8-----10-11--|-8-8------8-8-8----------||-------------------|
-||-----810---------8--------|-----8-10---------8-5656-||-------------------|
    PM==============>          PM===============>

E|--------------13------------------------13p12h13----------------------------|
B|----------------------10h11p10--------------------10p9h10-------------------|
G|-5/10-10p9h10---------------------------------------------------------------|
D|----------------------------------------------------------------------------|
A|----------------------------------------------------------------------------|
E|----------------------------------------------------------------------------|

E|--------------------11/13-----15----17--------------------------------------|
B|-10br---------------12/13----------------------------17\--------------------|
G|------10---------------------------------171514-----------------------------|
D|---------10----10------------------------------1715-------------------------|
A|------------12--------------------------------------------------------------|
E|----------------------------------------------------------------------------|
         PM=====>
E|-------------|-------------|-------------------|----------------|------------|
B|-4p3h4-6p4h6-|-8p6h8-9p8h9-|-13p11h13-15p13h15-|-17h18p17h18p17-|------------|
G|-------------|-------------|-------------------|----------------|------------|
D|-------------|-------------|-------------------|----------------|------------|
A|-------------|-------------|-------------------|----------------|------------|
E|-------------|-------------|-------------------|----------------|------------|

E|---------------|---------------|-----------------|----------------------|---|
B|---------------|---------------|-----------------|-15b-15b-15b-15-14-13-|---|
G|---------------|---------------|-----------------|----------------------|---|
D|---------------|---------------|-5---7--8----10--|----------------------|---|
A|-5---5---5-6---|---------------|-5---7--8----10--|----------------------|---|
E|-------5-------|-5---5-0-5-6---|-3---5--6----8---|----------------------|---|
Jama wo shitakunai kimochi to   Ah Jama wo shitai kimochi  Tatakatteta

F          C
Itsumo itsudatte (dakara!)
Dm                Am
Doko ni ita to shite mo (dakara!)
Bb                 Am
Sora de KUROORU shitai kurai
Gm              C
Waratte itai yo ne (natsu dakara!)

F          C
Konya mikazuki ni (dakara!)
Dm                Am
Futari koshi kaketara (dakara!)
Bb                 Am
Yurari yurarete asayake made
Gm
Kono kokoro wa

C         C    C/B  C/A  C/G
Natsu dakara !
         (blue blue blue sky)
     C    C/B  C/A  C/G
Omoi wa
    (blue blue sunshine)
        C    C/B  C/A  C/G C    C/B  C/A  C/G
Hitotsu sa
       (blue blue blue sky blue blue sunshine)
Otros videos de esta canción
    19 exhibiciones
      • ½ Tono
      • A
      • Bb
      • B
      • C
      • Db
      • D
      • Eb
      • E
      • F
      • F#
      • G
      • Ab
    • Agregar a la lista

    Afinación de cifrado

    Afinador online

      OK