Cifra Club

Mercy

Burden Brothers

Cifrado: Principal (guitarra y guitarra eléctrica)
Selo Cifra Club: esta cifra foi revisada para atender aos critérios oficiais da nossa Equipe de Qualidade.
tono: C
                                  OR IN D...
E|-7----5-5----3-3--3----3--| e-----------------------|
B|-7----5-5----3-3--3----3--| B-12--1010--8-8--8----8-|
G|-0----0-0----0-0--0----0--| x2    G-11--9-9---7-7--7----7-|
D|-0----0-0----0-0--0----0--| D-9---7-7---5-5--5----5-|
A|-x----x-x----x-x--x----x--| A-9---7-7---5-5--5----5-|
E|-7----5-5----3-3--3----3--| D-9---7-7---5-5--5----5-|

E|---------------3-33---------------(5)-3-33---|
B|---------------3-33---------------(5)-3-33---|
G|---------------4-44---------------(5)-4-44---|
D|-----0-----2-0-5-55-------0-----2-(5)-5-55---|
A|-0-1---1-3-----5-55---0-1---1-3-------5-55---|
E|---------------3-33-------------------3-33---|


                                  OR IN D...
E|-6----4-4----3-3--3----3--| e-----------------------|
B|-6----4-4----3-3--3----3--| B-11--9-9---8-8--8----8-|
G|-0----0-0----0-0--0----0--| x2    G-10--8-8---7-7--7----7-|
D|-0----0-0----0-0--0----0--| D-8---6-6---5-5--5----5-|
A|-x----x-x----x-x--x----x--| A-8---6-6---5-5--5----5-|
E|-6----4-4----3-3--3----3--| D-8---6-6---5-5--5----5-|


E|-------------(5)-3-33--------------------------------------------|
B|-------------(5)-3-33--------------------------------------------|
G|-------------(5)-4-44--------0-------0---------------------------|
D|-----0-----2-(5)-5-55------0-------0-------0---------------------|
A|-0-1---1-3-------5-55--0-1-----1-3-------------------------------|
E|---------------------------------------1-3---1\3-| (D-3-5---3\5-|

***this is where the key changes from E to D

E|-----------------------------------------|
B|-3-33/15-15-13-1010--3-33/13-13-12-1010--|
G|-2-22/14-14-14-9-9---2-22/12-12-12-9-9---|
D|-0-00/12-12-12-7-7---0-00/10-10-10-7-7---|
A|-0-00/12-12-12-7-7---0-00/10-10-10-7-7---|
E|-0-00/12-12-12-7-7---0-00/10-10-10-7-7---|


E|-----------------------------|
B|-6-----6-5-----5-5-----5-7---| not perfect but sounds good
G|-----7-------6-------6---6---|
D|---5-------5-------5-----5---|
A|-------------------------5---|
E|-5-------5-------5-------5---|


E|---------------------------------------------------|
B|-3-33/13-13-12-1010-6-----6-5-----5----------------|
G|-2-22/12-12-12-9-9------7-------6------------------|
D|-0-00/10-10-10-7-7----5-------5-----10-10-10/7-7-7-|
A|-0-00/10-10-10-7-7------------------10-10-10/7-7-7-|
E|-0-00/10-10-10-7-7--5-------5-------10-10-10/7-7-7-|


E|-----------------------------------------|
B|-3-33/15-15-13-1010--3-33/13-13-12-1010--|
G|-2-22/14-14-14-9-9---2-22/12-12-12-9-9---|
D|-0-00/12-12-12-7-7---0-00/10-10-10-7-7---|
A|-0-00/12-12-12-7-7---0-00/10-10-10-7-7---|
E|-0-00/12-12-12-7-7---0-00/10-10-10-7-7---|


E|----------------------------|
B|-6-----6-----5-----5-----7--| once again, not perfect
G|-----7---7-------6---6---6--| but it sounds good
D|---5-------5---5-------5-5--|
A|-------------------------5--|
E|-5-----------5-----------5--|


**Changes back to E, if you're playing in D, the fingerings
are at the top of the page

E|-7----5-5----3-3--3----3--|
B|-7----5-5----3-3--3----3--|
G|-0----0-0----0-0--0----0--| x2
D|-0----0-0----0-0--0----0--|
A|-x----x-x----x-x--x----x--|
E|-7----5-5----3-3--3----3--|

E|---------------3-33---------------(5)-3-33---|
B|---------------3-33---------------(5)-3-33---|
G|---------------4-44---------------(5)-4-44---|
D|-----0-----2-0-5-55-------0-----2-(5)-5-55---|
A|-0-1---1-3-----5-55---0-1---1-3-------5-55---|
E|---------------3-33-------------------3-33---|

E|-6----4-4----3-3--3----3--|
B|-6----4-4----3-3--3----3--|
G|-0----0-0----0-0--0----0--| x2
D|-0----0-0----0-0--0----0--|
A|-x----x-x----x-x--x----x--|
E|-6----4-4----3-3--3----3--|


E|-------------(5)-3-33----------------------------------|
B|-------------(5)-3-33----------------------------------|
G|-------------(5)-4-44--------0-------0-------0-------0-|
D|-----0-----2-(5)-5-55------0-------0-------0-------0---|
A|-0-1---1-3-------5-55--0-1-----1-3---------------------|
E|---------------------------------------1-3-----1-3-----|

E|----------------------------3-|
B|----------------------------3-|
G|-------0-------0------------0-|
D|-----0-------0---2h3p0------0-|
A|-0-1-----1-3------------1\3-x-|
E|----------------------------3-|
Otros videos de esta canción
    0 exhibiciones
      • ½ Tono
      • A
      • Bb
      • B
      • C
      • Db
      • D
      • Eb
      • E
      • F
      • F#
      • G
      • Ab
    • Agregar a la lista

    Afinação da cifra

    Afinador online

      Ops (: Contenido disponible solo en portugués.
      OK