Cifra Club

Eu Sou Neguinha?

Caetano Veloso

Cifrado: Principal (guitarra y guitarra eléctrica)
tono: Em
Em
Eu tava encostad'ali minha guitarra
                             C7M
No quadrado branco vídeo papelão

Eu era o enigma, uma interrogação                                                                                                          
                                                     Em
Olha que coisa mais que coisa à toa, boa boa boa boa boa
Em
Eu tava com graça

Tava por acaso ali, não era nada

Bunda de mulata, muque de peão
                           C7M
Tava em Madureira, tava na bahia                                                                                                                                                                                                         
                                               Em
No Beaubourg no Bronx, no Brás e eu e eu e eu e eu

A me perguntar
Em
Eu sou neguinha?

E|---------------|
B|---------------|
G|---------------|
D|---------------|
A|--5-4--0-------|
E|------------2--|

Em
Era uma mensagem lia uma mensagem
                           C7M
Parece bobagem mas não era não

Eu não decifrava, eu não conseguia 
                                                   Em                                                                                                                           
Mas aquilo ia e eu ia e eu ia e eu ia e eu ia e eu ia
Em
Eu me perguntava: era um gesto hippie, um desenho estranho
                                C7M
Homens trabalhando, pare, contramão

E era uma alegria, era uma esperança 
                                                   Em                                                                                       
E era dança e dança ou não ou não ou não ou não ou não

Tava perguntando
Em
Eu sou neguinha?

                   Em                    D7M
E|--------------------------------------------------------------|
B|--------------------------------------------------------------|
G|--------------------------------------------------------------|
D|--------------------------------------------------------------|
A|-5-4-0---7-7-5---7---5-7---5-7--5-5-------5-------5-----------|
E|-------2-------7---7-----7----------7--5-----5--7----0-2--5---|

Em
Eu sou neguinha?
D7M
Eu sou neguinha?

Em
Eu tava rezando ali completamente
                               C7M
Um crente, uma lente, era uma visão

Totalmente terceiro sexo totalmente terceiro mundo terceiro milênio  
                               Em
Carne nua nua nua nua nua nua nua
Em
Era tão gozado

Era um trio elétrico, era fantasia
                        C7M
Escola de samba na televisão

Cruz no fim do túnel, becos sem saída
                                         Em                                                                
E eu era a saída, melodia, meio-dia dia dia
                             
Era o que dizia: 
Em
Eu sou neguinha?

Em 
Mas via outras coisas: via o moço forte
                              C7M
E a mulher macia den'da escuridão

Via o que é visível, via o que não vi
                                                              Em                                                                                                    
O que a poesia e a profecia não vêem mas vêem,vêem,vêem,vêem,vêem,
Em
É o que parecia

Que as coisas conversam coisas surpreendentes
                            C7M
Fatalmente erram, acham solução

E que o mesmo signo que eu tenho ler e ser
                                                                                                       
É apenas um possível ou impossível em mim em mim em mil em mil em  
Em
mil

E a pergunta vinha
Em
Eu sou neguinha?

   Em                              D7M            
E|----------------------------------------------------------------|
B|----------------------------------------------------------------|
G|----------------------------------------------------------------|
D|--------------------------------7-------------------------------|
A|-7--7--5---7----5--7--5---7--5-----9--5--5-------5------5-------|
E|---------7---7----------7------------------7--5----5-7----0-2--5|

    Em                                  D7M
E|----------------------------------------------------------------|
B|----------------------------------------------------------------|
G|----------------------------------------------------------------|
D|----------------------------------------------------------------|
A|--7-7--5---7---5--7-------------6---5--5------5-------5---------|
E|---------7---7------0--6--0--5----7------7--5---5--7-----0--2--5|

D7M
Eu sou neguinha?
00:00 / 00:00
Otros videos de esta canción
Repetir
Otros videos de esta canción
Composición de Caetano Veloso
Colaboración y revisión:
  • Ronaldo Alves
154 exhibiciones
    • ½ Tono
    • Am
    • Bbm
    • Bm
    • Cm
    • C#m
    • Dm
    • Ebm
    • Em
    • Fm
    • F#m
    • Gm
    • G#m
  • Agregar a la lista
    00:00 / 00:00
    OK