Cifra Club

Império da Lei

Caetano Veloso

Tablatura: Principal (guitarra)
Tom: D
D            D7         G            A7           D
O império da lei há de chegar no coração do Pará
D            D7         G            A7           D
O império da lei há de chegar no coração do Pará
D            D7         G            A7           D
O império da lei há de chegar no coração do Pará
D            D7         G                  A
O império da lei há de chegar lá

Bm7                          D
Quem matou meu amor tem que pagar
                           F#m
E ainda mais quem mandou matar
Bm7                      G
Ter o olho no olho do jaguar
           D
Virar jaguar

D            D7         G            A7           D
O império da lei há de chegar no coração do Pará

E|---------------------
B|---------------------
G|---------------------
D|5--5--5--5--5--5--5-5
A|5--5--5--5--5--5--5-5
E|5--5--5--5--5--5--5-5


D            D7         G            A7           D
O império da lei há de chegar no coração do Pará
D            D7         G            A7           D
O império da lei há de chegar no coração do Pará
D            D7         G                  A
O império da lei há de chegar lá

Bm7                          D
Quem matou meu amor tem que pagar
                           F#m
E ainda mais quem mandou matar
Bm7                      G
Ter o olho no olho do jaguar
           D
Virar jaguar

D            D7         G            A7           D
O império da lei há de chegar no coração do Pará

|10-------------------------------------------------------------------------
|--12-10-12--10---10---10---------------------------------------------------
|---------------11---11---11-----11--9----11--9-----11--9------11--9--------
|--------------------------------------12-------12---------12---------12--12
|---------------------------------------------------------------------------
|---------------------------------------------------------------------------          2X

|10----------------------------------------
|--12-10-12--------------------------------
|------------------------------11--9-------
|------------------------------------12--12
|------------------------------------------
|------------------------------------------

D            D7         G            A7           D
O império da lei há de chegar no coração do Pará
D            D7         G            A7           D
O império da lei há de chegar no coração do Pará
D            D7         G                  A
O império da lei há de chegar lá

Bm7                          D
Quem matou meu amor tem que pagar
                           F#m
E ainda mais quem mandou matar
Bm7                      G
Ter o olho no olho do jaguar
           D
Virar jaguar

D            D7         G            A7           D
O império da lei há de chegar no coração do Pará
reproducciones 32
Acordes para:
    Colaboración y revision:
    • Robson Santos

    0 comentarios

    mostrar más comentarios

    ¿Conseguiste tocar?

    0 tocaron 0 aún no

    ¡Graba un vídeo tocando Império da Lei y envianoslo!

    00:00 / 00:00
    outros vídeos desta música
    repetir qualidade Automático
    Outros vídeos desta música
    00:00 / 00:00
    Automático
    OK