Cifra Club

Samba de Verão

Caetano Veloso

Tablatura: Principal (guitarra)
Tono: D
[Intro] F7M  F9  F7M  F9  F7M  F9  F7M  F9
        F7M

E|---1---3---1---3---1---3---1---3-------1---3---1---3---1---3---1---3-------------|
B|-1---1---1---1---1---1---1---1-------1---1---1---1---1---1---1---1---------------|
G|-------------------------------------------------------------------------5-4-3-1-|
D|---------------------------------------------------------------------------------|
A|---------------------------------------------------------------------------------|
E|---------------------------------------------------------------------------------|

F7M
Você viu só que amor, nunca vi coisa assim
Bm7(b5)              E7(b13)
E passou, nem parou, mas olhou só pra mim
Bb7M
Se voltar, vou atrás, vou pedir, vou falar
Bbm6                 Eb7(9)
Vou dizer que o amor foi feitinho pra dar.

Am7      D7(b9)       Gm7    Em7(b5)        A7/5+       Dm7(9)
 Olha,     é como o verão,     quente o coração,
           G7         Gm7     C#7/9    C7(b9)
Salta de repente para ver a menina que vem

F7M
Ela vem, sempre tem esse mar no olhar
Bm7(b5)                 E7(b13)
E vai ver, tem que ser, nunca tem quem amar
Bb7M
Hoje sim, diz que sim, já cansei de esperar
Bbm6                  Eb7(9)
Nem parei, nem dormi, só pensando em lhe dar

Am7     D7(b9)      G7(13)  G7(13-)  C7(9)  C7(9-)
  Peço,  mas você não vem,                bem
F7M                   Bb7                   F    C7(b9)
Deixo, então falo só, digo ao céu, mas você vem

 F7M
Samba de Verão

- Você viu só que amor, nunca vi coisa assim...
E|----------------------------------------------------3--5-4-3-----3--5-4-3--|
B|-1-3--5-4-3---1-3--5-4-3----3--5-4-3-----5-4-3--3-6----------3-6-----------|
G|2-----------2------------2-5---------2-5-----------------------------------|
D|---------------------------------------------------------------------------|
A|---------------------------------------------------------------------------|
E|---------------------------------------------------------------------------|

E|----3--5-4-3------3--5-4-3---8----11-10-8--------8-7-6-5-----5-4-3-----|
B|2-6-----------2-6--------------4----------11-10----------8---------6-6-|
G|-----------------------------------------------------------------------|
D|-----------------------------------------------------------------------|
A|-----------------------------------------------------------------------|
E|-----------------------------------------------------------------------|

E|------------4-3---3------------------|
B|3-6-3-6-3-6-----6--------------------|
G|-------------------------------------|
D|-------------------------------------|
A|-------------------------------------|
E|-------------------------------------|

- Ela vem, sempre tem esse mar no olhar...
E|----------------------------------------------------3--5-4-3-----3--5-4-3--|
B|-1-3--5-4-3---1-3--5-4-3----3--5-4-3-----5-4-3--3-6----------3-6-----------|
G|2-----------2------------2-5---------2-5-----------------------------------|
D|---------------------------------------------------------------------------|
A|---------------------------------------------------------------------------|
E|---------------------------------------------------------------------------|

E|----3--5-4-3------3--5-4-3---8----11-10-8--------------------------------|
B|2-6-----------2-6--------------4----------11-10--10--8-7-6--6-7-8--8-7-6-|
G|-------------------------------------------------------------------------|
D|-------------------------------------------------------------------------|
A|-------------------------------------------------------------------------|
E|-------------------------------------------------------------------------|

E|-------------------|
B|6-7-8-6------------|
G|-------------------|
D|-------------------|
A|-------------------|
E|-------------------|
reproducciones 4.868
Acordes para:

    0 comentarios

    mostrar más comentarios

    ¿Conseguiste tocar?

    14 tocaron 1 aún no

    ¡Graba un vídeo tocando Samba de Verão y envianoslo!

    00:00 / 00:00
    outros vídeos desta música
    repetir qualidade Automático
    Outros vídeos desta música
    00:00 / 00:00
    Automático
    OK