Cifra Club

Tigresa

Caetano Veloso

Cifrado: Principal (guitarra y guitarra eléctrica)
tono: C#m
[Intro] C#m  C#9  C#m  C#9  C#m  B
        C#m  C#9  C#m  C#9  C#m  B
        C#m  C#9  C#m  C#9  C#m  B

[Tab - Intro]

Parte 1 de 2
E|-4-4--4-4--4-4---4-4--4-4--4-4------------|
B|-5-5--4-5--5-4---5-5--4-5--5-4------------|
G|-6-6--4-6--6-4---6-6--4-6--6-4------------|
D|-6-6--4-6--6-4---6-6--4-6--6-4------------|
A|-4-4--4-4--4-4---4-4--4-4--4-4------------|
E|------------------------------------------|

Parte 2 de 2
E|-4-4--4-4--4-4----------------------------|
B|-5-5--4-5--5-4----------------------------|
G|-6-6--4-6--6-4----------------------------|
D|-6-6--4-6--6-4----------------------------|
A|-4-4--4-4--4-4----------------------------|
E|------------------------------------------|

[Primeira Parte] 

C#m            F#m          
Uma tigresa de unhas negras 
  C#m          A
E íris cor de mel
C#m         F#m    B7   
Uma mulher, uma beleza 
   E          F#
Que me aconteceu
      C#m            A        
Esfregando a pele de ouro marrom 
        C#m            G#m
Do seu corpo contra o meu
      A               B7    
Me falou que o mal é bom 

E o bem cruel

[Segunda Parte] 

( C#m  C#9  C#m  C#9  C#m  B )
( C#m  C#9  C#m  C#9  C#m  B )

    C#m            F#m       
Enquanto os pelos dessa deusa 
  C#m             A
Tremem ao vento ateu
C#m            F#m    B7   
Ela me conta, sem certeza
 E           F#
Tudo que viveu
        C#m       A        
Que gostava de política 
            C#m                 G#m
Em mil novecentos e sessenta e seis
        A           B7               
E hoje dança no Frenetic Dancing Days

( C#m  C#9  C#m  C#9  C#m  B )
( C#m  C#9  C#m  C#9  C#m  B )

[Terceira Parte] 

C#m              F#m     
Ela me conta que era atriz 
    C#m          A
E trabalhou no "Hair"
 C#m               F#m   B7   
Com alguns homens foi feliz
    E              F#
Com outros foi mulher
         C#m        A            
Que tem muito ódio no coração
         C#m         G#m
Que tem dado muito amor
        A             B7              
E espalhado muito prazer e muita dor

( C#m  C#9  C#m  C#9  C#m  B )
( C#m  C#9  C#m  C#9  C#m  B )

[Quarta Parte] 

C#m                   F#m        
    Mas ela ao mesmo tempo diz 
     C#m        A
Que tudo vai mudar
 C#m               F#m     B7   
Porque ela vai ser o que quis
   E             F#
Inventando um lugar
     C#m              A        
Onde a gente e a natureza feliz 
       C#m            G#m
Vivam sempre em comunhão
        A          B7                  
E a tigresa possa mais do que o leão

( C#m  C#9  C#m  C#9  C#m  B )
( C#m  C#9  C#m  C#9  C#m  B )

[Quinta Parte] 

    C#m         F#m  
As garras da felina 
       C#m         A
Me marcaram o coração
    C#m           F#m  B7  
Mas as besteiras de menina 
    E          F#
Que ela disse não
      C#m             A         
E eu corri para o violão
                  C#m           G#m
Num lamento, e a manhã nasceu azul
        A           B7                
Como é bom poder tocar um instrumento

( C#m  C#9  C#m  C#9  C#m  B )
( C#m  C#9  C#m  C#9  C#m  B )

[Solo] C#m  F#m  C#m  A
       C#m  F#m  B7  E  F#
       C#m  A  C#m  G#m
       A  B7

[Tab - Solo]

Parte 1 de 5
E|------------------------------------------|
B|----------7b9-9-9r7-5---5--7b9------------|
G|-----4-4--------------6-------------------|
D|-4/6--------------------------------------|
A|------------------------------------------|
E|------------------------------------------|

Parte 2 de 5
E|-----7-----7-----7-7----------------------|
B|-7b9---7b9---7b9-----7b9-9r7-5---7-7b9----|
G|-------------------------------6----------|
D|------------------------------------------|
A|------------------------------------------|
E|------------------------------------------|

Parte 3 de 5
E|---------------------12b14----------------|
B|------11----b14r12-9----------------------|
G|-9----11-9--------------------------------|
D|---11-------------------------------------|
A|------------------------------------------|
E|------------------------------------------|

Parte 4 de 5
E|-9-------9----9-9-------------------------|
B|---12b14---14---b14r12-9----------11------|
G|--------------------------11p9----11-9~---|
D|-------------------------------11---------|
A|------------------------------------------|
E|------------------------------------------|

Parte 5 de 5
E|------------------------------------------|
B|---9--------------------------------------|
G|-x-9-----9-0-9\---------------------------|
D|------11----------------------------------|
A|------------------------------------------|
E|------------------------------------------|

( C#m  C#9  C#m  C#9  C#m  B )
( C#m  C#9  C#m  C#9  C#m  B )

[Primeira Parte] 

C#m            F#m          
Uma tigresa de unhas negras 
  C#m          A
E íris cor de mel
C#m         F#m    B7   
Uma mulher, uma beleza 
   E          F#
Que me aconteceu
      C#m            A        
Esfregando a pele de ouro marrom 
        C#m            G#m
Do seu corpo contra o meu
      A               B7    
Me falou que o mal é bom 

E o bem cruel

[Segunda Parte] 

( C#m  C#9  C#m  C#9  C#m  B )
( C#m  C#9  C#m  C#9  C#m  B )

    C#m            F#m       
Enquanto os pelos dessa deusa 
  C#m             A
Tremem ao vento ateu
C#m            F#m    B7   
Ela me conta, sem certeza
 E           F#
Tudo que viveu
        C#m       A        
Que gostava de política 
            C#m                 G#m
Em mil novecentos e sessenta e seis
        A           B7               
E hoje dança no Frenetic Dancing Days

( C#m  C#9  C#m  C#9  C#m  B )
( C#m  C#9  C#m  C#9  C#m  B )

[Terceira Parte] 

C#m              F#m     
Ela me conta que era atriz 
    C#m          A
E trabalhou no "Hair"
 C#m               F#m   B7   
Com alguns homens foi feliz
    E              F#
Com outros foi mulher
         C#m        A            
Que tem muito ódio no coração
         C#m         G#m
Que tem dado muito amor
        A             B7              
E espalhado muito prazer e muita dor

( C#m  C#9  C#m  C#9  C#m  B )
( C#m  C#9  C#m  C#9  C#m  B )

[Quarta Parte] 

C#m                   F#m        
    Mas ela ao mesmo tempo diz 
     C#m        A
Que tudo vai mudar
 C#m               F#m     B7   
Porque ela vai ser o que quis
   E             F#
Inventando um lugar
     C#m              A        
Onde a gente e a natureza feliz 
       C#m            G#m
Vivam sempre em comunhão
        A          B7                  
E a tigresa possa mais do que o leão

( C#m  C#9  C#m  C#9  C#m  B )
( C#m  C#9  C#m  C#9  C#m  B )

[Quinta Parte] 

    C#m         F#m  
As garras da felina 
       C#m         A
Me marcaram o coração
    C#m           F#m  B7  
Mas as besteiras de menina 
    E          F#
Que ela disse não
      C#m             A         
E eu corri para o violão
                  C#m           G#m
Num lamento, e a manhã nasceu azul
        A           B7                
Como é bom poder tocar um instrumento

[Final] C#m  C#9  C#m  C#9  C#m  B
00:00 / 00:00
Otros videos de esta canción
Repetir
Otros videos de esta canción
Composición de Caetano Veloso
8.795 exhibiciones
    • ½ Tono
    • Am
    • Bbm
    • Bm
    • Cm
    • C#m
    • Dm
    • Ebm
    • Em
    • Fm
    • F#m
    • Gm
    • G#m
  • Agregar a la lista
    00:00 / 00:00
    OK