Cifra Club

Aunque no sea conmigo

Café Tacvba

Cifrado: Principal (guitarra y guitarra eléctrica)
tono: F#m

      E7         Amaj7      E7            Bm
E|------------------0-----|--------------------------|
B|-------3---3-------2----|---3---3-3----------------|
G|-------2---1-----1---1--|---2---2-2-----4-4-4------|
D|-----------2----2---2---|---------------4-4-4------|
A|-0-1-2---2----0-------0-|-2---2-2------------------|
E|------------------------|---------0-1-2------------|

    F#       E7  Amaj7          E7              F#m
E|-------|---------------0----|-----------------------|
B|-------|---3---2------2-2---|--3-3---3--------------|
G|-3-3-3-|--2---1------1---1--|--2-2---2--------------|
D|-4-4-4-|----2---2---2-------|-----------------------|
A|-------| 0---------0-------0-|2-----2-0--------------
E|-2-----|------0-------------|------------0-1-1/2----|

               E7         Amaj7           E7
E|----2-----|--------------------------|--------------|
B|-----2----|--3-3-----3-----2-2| n1---2-|----3-----3---
G|--2---2---|--2-2-----1----1-------1--|----2-----2---|
D|-4-4------|--------2-----2-------2---|--------------|
A|--------0-| 2-----2-----0--------0----|1-2-----------
E|----------|--------------------------|------0-1-----|

    Bm       F#      E7   Amaj7            E7      F#m
E|-----------------|------------------0--|------------|
B|-----------------|---3---2-----2----2--|--3---3-----|
G|-----4-4-4-3-3-3-|--2---1-------1----1-|--2---2-----|
D|-----4-4-4-4-4-4-|----2---2---2---2----|------------|
A|-----------------| 0---------0------0---|2-----------
E|-1-2-------2-----|------0--------------|----0--0-1/2|

                             Bm   E7  F#m
E|---------|------------2---|--------------2----------|
B|---------|-----------2-2--|--3---3----2-2-2---------|
G|----2----|----------2---2-|--4---2-----2---2--------|
D|--0--0---|---------4------|-----------------4-------|
A|-4-------|--------4-------| 2---2--------------------
E|-------2-|------2---------|---------2---------------|
           A placer..    puedes..
   Bm     E7   A           D        Bm      C# B7
E|---------------0-0-0--|-----2--------2-----4--2-----|
B|---3-3---3----2--2-2--|----3-3------3-3----6--4-----|
G|---4-4---2---2---2-2--|---2---2----4---4---6--2-----|
D|--------0-------------|--0-----0--4--------6--4-----|
A|-2-----2----0---------|-0--------2---------4--2-----|
E|----------------------|--------------------4--2-----|

        F#m        Bm   E7    F#m        Bm  E7
E|----------------|---------------2----|--------------|
B|----------2| n0---|---3---3--------2---|--3---3-------
G|-------------2--|---4---2-----2---2--|--4---2-------|
D|---------4----4-|--4---0-----4-4---4-|-4---0--------|
A|--------4------4|-2---2---0----------| 2---2---------
E|-------2--------|-----------2--------|--------------|
Se muy bien...
    A          D        Bm
E|-----0----|----2--------2----3/6-6/9-10----|--------|
B|----2-2---|---3-3------3-3---2/5-5/8-9-----|--------|
G|--2----2--|--2---2----4---4--3/6-6/9-10----|--------|
D|---2----2-|-0-----0--4-----4-2/5-5/8-9-----|--------|
A|-0--------| 0--------2----------------------|--------
E|----------|--------------------------------|--------|
                                            ..Y no es
     Bm              E          A      D          Bm
E|--------2---------|-----------0--------2---2---|----|
B|-------3----------|------0---2-2--------3---3--|----|
G|------4-----------|--1----------2-----2--2---2-|----|
D|-----4------------|--------------2--0---------0|----|
A|----2-----2-0-----|----2---0------0------------| 2---
E|--------------3-2-| 0---------------------------|----
  por eso..
            F#m                 F#
E|---2---2------2-2-----2-2-----222222222----2-2-2----|
B|--3-3---3-----2-2-----2-2-----222222222----2-2-2----|
G|-----4--------2-2-----2-2-----333333333-2--3-3-3----|
D|-4----------------------------444444444--4-4-4-4----|
A|------------------4-4---------444444444----4-4-4----|
E|----------2-2-------------2-2-222222222----2-2-2----|
                                           ..pero si ahora
   Bm          E   E7  A       D        Bm      C#
E|-----5| n2-------------0-0-0-|---2-2------2--2--4-----
B|----3---3------0--0--2-2-2-|----3-3------3--3-6-----|
G|---4-----2-2---1--1----2-2-|--2----2---4--4---6-----|
D|--4-------4----2--0--2---2-|-0------0-4-------6-----|
A|-2----------------2--------|------------------4-----|
E|-------------0-------------|------------------4-----|
  tienez..
  F#m           E7      Amaj7     E7             F#m
E|------------|------------------|--------------------|
B|------2-----|--3---3----2-3----|--3-3---3-3---------|
G|----2--2----|--2---1---1---1---|--2-2---2-2---------|
D|---4-4------|------2-----2--2--|--------------------|
A|--------4-3-| 2---2---0-------0-|2-----2-2-2---------
E|-2----------|------------------|------------0-1/2---|

         F#     E7        Amaj7        E7          F#m
E|-------------|---------------0------|---------------|
B|-------------|---3-3--3-------2-----|--3---3--------|
G|-4-4-4-3-3-3-|---2-2-1------1--1----|--2---2--------|
D|-4-4-4-4-4-4-|-0-------2---2--------|-----0---------|
A|-------------| 2----------0------0-1-|2---2----------
E|-------2-----|-------0--------------|--------1-1/2--|

             F#     x2   Bm            E     E7
E|----2----| |-------||----------------|--------------
B|---2-2---| |2-2-2-2||-2---3-2n3p2-3--|--0----0------
G|--2---2--| |3-3-3-3||-3---4-------4--|--1----1------
D|-4-----4-| |4-4-4-4||-4--4-4-----4---|--2----0------
A|---------| |-------||---2------------|-----2-2-2-0--
E|---------| |2-2-2-2||-2-------------2|0---0---------
              ..y no es por eso..
  A           D        Bm              F#m
E|---0----0--|----2-------2---2---2---|----2----2----|
B|---2-2---2-|---3-3------3---3---3---|----2----2----|
G|-2-----2---|--2---2-----4---4---4---|----2----2----|
D|-2----2----|-0-----0--4---4-4-4-4-4-|-----4-----4--|
A|-----------| 0--------2--------------|4-4---4-------
E|-----------|------------------------|-------2------|

  F#                    Bm            E    E7    A
E|----2-2---2-----2----|----2----------------------0--|
B|----2-2---2----2-2-2-|---3-3----------0----0-----2--|
G|----3-3---3---3---3--|--4-------------1----1-----2--|
D|----4-4---4--4-------|-4--------------2----0-------2|
A|------4-4--4---------| 2-----2-0----------2-2-2-0----
E|-2-2-2---2--2--------|----------3-2-0---0-----------|

       D      Bm       C#            F#
E|--0-----2-------2----4-----------------4--2| n4p2--0-
B|--2---3--3----3--3---6----------------2----------0-|
G|--2--2-2--2--4-4--4--6---------------2-------------|
D|-----------0-------4-6--------------4--------------|
A|0---0-------2--------4-----------------------------
E|---------------------4-------------2---------------|
00:00 / 00:00
Otros videos de esta canción
Repetir
Otros videos de esta canción
Composición de Carlos Santana
66 exhibiciones
    • ½ Tono
    • Am
    • Bbm
    • Bm
    • Cm
    • C#m
    • Dm
    • Ebm
    • Em
    • Fm
    • F#m
    • Gm
    • G#m
  • Agregar a la lista
    00:00 / 00:00
    OK