Cifra Club

Eres

Café Tacvba

Cifrado: Principal (guitarra y guitarra eléctrica)
Selo Cifra Club: esta cifra foi revisada para atender aos critérios oficiais da nossa Equipe de Qualidade.
tono: Am
[Intro] Am  C  E7 
        Am  C  E7  
        Am  C  E7 
        Am  C  E7

[Primeira Parte]

Am   C  E7            
Eres,      lo que más quiero
                   Am      C
En este mundo, eso    eres
E7          
   Mi pensamiento
                  Dm7
Más profundo también eres
E7
   Tan solo dime
                   Am       C  E7
Lo que hago, aquí me tienes

Am   C  E7           
Eres,      cuando despierto
                Am      C
Lo primero, eso    eres
E7           
   Lo que a mi vida le hace
          Dm7
Falta si no vienes
E7
   Lo único, preciosa, que en mi
           Am    C  E7
Mente habita hoy

[Refrão 1]

[Tab - Frase 1]

   Am       Dm7
E|----------1-------------------------------|
B|----------1-------------------------------|
G|----------2-------------------------------|
D|-------2--0-------------------------------|
A|-0-2-3------------------------------------|
E|------------------------------------------|

Dm7
    ¿Qué más puedo decirte?
E7                         Am (Frase 1)
   Tal vez puedo mentirte sin razón

[Tab - Frase 2]

   Dm7       E
E|------------------------------------------|
B|------------------------------------------|
G|------------------------------------------|
D|-0----------------------------------------|
A|---3-2-0----------------------------------|
E|-----------0-0-0-0------------------------|

Dm7
    Pero lo que hoy siento
G             G#º                 
  Es que sin ti estoy muerto
     Dm7  (Frase 2)  E
Pues eres

Lo que más quiero
                  Am      C  E7
En este mundo eso    eres

( Am  C  E7 )
( Am  C  E7 )
( Am  C  E7 )
( Am  C  E7 )

[Segunda Parte]

[Tab - Riff 1]

E|-0-0-0-0---------0-0-0-0------------------|
B|-5-5-5-5--x-x-x--5-5-5-5--x-x-x-----------|
G|-7-7-7-7--x-x-x--7-7-7-7--x-x-x-----------| (7x)
D|------------------------------------------|
A|------------------------------------------|
E|------------------------------------------|

Am   C  (Riff 1)        
Eres,            el tiempo que

Comparto, eso eres

Lo que la gente promete

Cuando se quiere

Mi salvación

Mi esperanza, y mi fe

 Am  C  E7     
Soy        el que quererte
                    Am  C
Quiere como nadie, soy
E7             
   El que te llevaría el sustento
       Dm7
Día a día, día a día
E7
   El que por ti daría
             Am     C  E7
La vida, ese    soy

[Refrão 2]

Dm7
   Aquí estoy a tu lado
E7                          
   Y espero aquí sentado
    Am (Frase 1)
Hasta el final
Dm7
    No te has imaginado
G             G#º              
  Lo que por ti
                  Dm7 (Frase 2) E
He esperado, pues eres

[Terceira Parte]

Lo que yo amo en
              Am     C
Este mundo, eso eres
F         E7                   
  Cada minuto en lo
             Am     C
Que pienso eso eres
F             E7                   
  Lo que más cuido
                Am  C  F  E7
En este mundo eso   e_res

[Final] Am  C  F  E7
        Am  C  F  E7
        Am  C  F  E7
        Am  C  F  E7  Am
Otros videos de esta canción
    267.918 exhibiciones
    • Simplificar cifrado
      • ½ Tono
      • Am
      • Bbm
      • Bm
      • Cm
      • C#m
      • Dm
      • Ebm
      • Em
      • Fm
      • F#m
      • Gm
      • G#m
    • Agregar a la lista

    Afinación de cifrado

    Afinador online

      OK