Cifra Club

Eres

Café Tacvba

Tab de bajo: Principal
sacado tabs de esta banda. Pero bueno, menos charla y mas accion.
TODA LA CANCIÓN LA SAQUE POR OIDO

Intro
G----------------------------------------------------------|
D----------------------------------------------------------|  x2 VECES
A-----------------------7-7-7-----------------------7-7-7--|
E-5--(5)--58-8--8-7-(7)--------5--(5)--8-8--8-7-(7)--------|

Verso 1 (00:53)
G----------------------------------------------------------|
D----------------------------------------------------------|
A-----------------------7-7-7-----------------------7-7-7--|
E-5--(5)--58-8--8-7-(7)--------5--(5)--8-8--8-7-(7)--------|

G---------------------------------------------------------|
D---------------------------------------------------------|
A-5----5-(5)--6-7-7-------------------------------7-7-7---|
E----5---------------0-0-----5--(5)--8-8--8-7-(7)---------|

Coro (1:18)
G-----------------------------------------------------------------|
D-----------------------------------------------------------------|
A-5----5-5--6-7---7-7----0-2-3-7--5----5-5--6-------5-3-2-0-7777--|
E-----5----------7-----0--------------5-------3--0----------------|

Verso 2 (1:53)
G-----------------------------------|
D-----------------------------------|  X3 veces
A-----------------------------------|
E-5-(5)--58-8--5-6-7-5-4-7----------|

...y mi fé (2:35)
G------------|
D---------2--|
A-3-----3----|
E---3-0------|

G----------------------------------------------------------|
D----------------------------------------------------------|
A-----------------------7-7-7-----------------------7-7-7--|
E-5--(5)--58-8--8-7-(7)--------5--(5)--8-8--8-7-(7)--------|

G--------------------------------------|
D--------------------------------------|
A-5---5--6-7---77------------------87--|
E----5--------7---0--5--58-8--8-7------|

Coro (3:04)
G-----------------------------------------------------------------|
D-----------------------------------------------------------------|
A-5----5-5--6-7---7-7----0-2-3-7--5----5-5--6-------5-3-2-0-7777--|
E-----5----------7-----0--------------5-------3--0----------------|

Verso 3 (3:26)

G-------------------------------------------------------|
D------------------------2---------------------------2--|
A----------------------2---------------------------2----|
E-5--(5)--8-8--0-1---0-------5--(5)--8-8--0-1---30------|

G---------------------------|
D------------------------2--|
A----------------------2----|
E-5--(5)--8-8--0-1---0------|

G-------------------------------|
D--------------------------7----|  X5 veces
A--------------/10-8--10-7---7--|
E-5--(5)--8-8-------------------|

G-----
D-----
A-----
E--5--

Eso es todo. Ojala les haya gustado, espero que saquen mas canciones no nada mas de
etc. Para mas preguntas o correciones aqui esta mi mail: *
y viva el NU METAL! CABRONES!
00:00 / 00:00
Otros videos de esta canción
Repetir
Otros videos de esta canción
Composición de Emmanuel Del Real Díaz / Enrique Rangel Arroyo / Jose Alfredo Rangel Arroyo / Ruben Albarran Ortega
667 exhibiciones
00:00 / 00:00
OK