Cifra Club

La Chica Banda

Café Tacvba

Cifrado: Principal (guitarra y guitarra eléctrica)
tono: G
E|---------------------------|
B|---------------------------|
G|---------------------------|
D|--10--10--10--10-s-9--9----|
A|--10--10--10--10-s-9--9----|
E|---8---8---8---8-s-7--7----|

E|-------------------------------| |--varias--------
B|-------------------------------| |--veces---------
G|-------------------------------| |----------------
D|--8--8--8--8-s-7--7---5--5---10| |--10-10-10------
A|--8--8--8--8-s-7--7---5--5---10| |--10-10-10------
E|--6--6--6--6-s-5--5---3--3----8| |---8--8--8------



Verso 1

C
Me he enamorado de una chica banda
me he enamorado de su negra piel
pelos pintados flexi botas negras
A#                        Am          C
y es de las morras de la secu veintitres.

     C
E|-----------------------|
B|-------------------5---|
G|---4-5--5-5-5---4------|
D|-----------------------| x3
A|-----------------------|
E|-----------------------|

                      A#   Am
E|-------------------------------|
B|-------------------------------|
G|---4-5--5-5-5---4--3-----2-0---|
D|-------------------------------|
A|-------------------------------|
E|-------------------------------|


Verso 2

C
Pelos parados como un penacho
bailes como ritos xipe-totec
su piel morena chichimeca
A#              Am             C
pero en el punk ella aun no cree


     C
E|-----------------------|
B|-------------------5---|
G|---4-5--5-5-5---4------|
D|-----------------------| x3
A|-----------------------|
E|-----------------------|

                     A#    Am
E|-------------------------------|
B|-------------------------------|
G|---4-5--5-5-5---4--3-----2-0---|
D|-------------------------------|
A|-------------------------------|
E|-------------------------------|


F               Em
Y yo le di mi amor
A#
en un concierto
        G
de la atoxxico



     C
E|-----------------------|
B|-------------------5---|
G|---4-5--5-5-5---4------|
D|-----------------------| x3
A|-----------------------|
E|-----------------------|

                      A#   Am
E|-------------------------------|
B|-------------------------------|
G|---4-5--5-5-5---4--3-----2-0---|
D|-------------------------------|
A|-------------------------------|
E|-------------------------------|


C
Su padre es de san Juan Chamula
su madre vino desde Tzintzuntzan
pero la lider de los sexmolcajetes punk
A#                Am           C
ha nacido en la gran Tenochtitlan


E|-----------------------------------------|
B|-----------------------------------------|
G|-----------------------------------------|
D|-10--10--10--10--10--10-s-9--9--9--10---x2|
A|-10--10--10--10--10--10-s-9--9--9--10----|
E|--8---8---8---8---8---8-s-7--7--7---8----|



uno,
dos,
tres
cuatro,
cinco,
seis,
siete,
ocho,

     disco
***********************************************
E|---------------------------|
B|---------------------------|
G|---------------------------|
D|---------------------------| x3
A|---------------------------|
E|---8---5---3-3-3h5---------|

E|---------------------------------------------|
B|---------------------------------------------|
G|---------------------------------------------|
D|---------------------------------------------|
A|------------------------------1-1-1--3-3-3---|
E|---1-1-1-1-1-1-1--3-3-3-3-3-3----------------|
 ************************************************

* se repite todo esto varias veces*

*yo me le acerque
 *y sus libros le carge
*y mi amor yo olvide
 *eya  solo dijo
*"ay ay ay"
*eya  solo dijo
*"ay ay ay"
* eya  solo dijo
*"ay ay ay"


"AY AY AY"
    D
E|-----------------------|
B|-------------------7---|
G|---6-7--7-7-7---6-----|
D|-----------------------| x3
A|-----------------------|
E|-----------------------|

                                     C  Bm
E|----------------------------|
B|----------------------------|
G|---6-7--7-7-7---6--5--4-2---|
D|----------------------------|
A|----------------------------|
E|----------------------------|



D
Me he enamorado de una chica banda
me he enamorado de su negra piel
pelos pintados flexi botas negras
C                        Bm          D
y es de las morras de la secu veintitres

      D
E|-----------------------|
B|-------------------7---|
G|---6-7--7-7-7---6-----|
D|-----------------------| x3
A|-----------------------|
E|-----------------------|

                       C  Bm
E|----------------------------|
B|----------------------------|
G|---6-7--7-7-7---6--5--4-2---|
D|----------------------------|
A|----------------------------|
E|----------------------------|


G               F#m
Y yo le di mi amor
C
en un concierto
      A         D
de rebelde punk.


E|---------------------------|
B|---------------------------|
G|---------------------------|
D|--12--12--12--12-s-11-11---|
A|--12--12--12--12-s-11-11---|
E|--10--10--10--10-s--9--9---|

ay AY AY

E|---------------------------|
B|---------------------------|
G|---------------------------|
D|--12--12--12--12-s-11-11---|
A|--12--12--12--12-s-11-11---|
E|--10--10--10--10-s--9--9---|


ay AY AY

E|---------------------------|
B|---------------------------|
G|---------------------------|
D|--12--12--12--12-s-11-11---|
A|--12--12--12--12-s-11-11---|
E|--10--10--10--10-s--9--9---|
00:00 / 00:00
Otros videos de esta canción
Repetir
Otros videos de esta canción
Composición de E. Del Real / Elorza Rangel / Joselo Rangel
47 exhibiciones
    • ½ Tono
    • A
    • Bb
    • B
    • C
    • Db
    • D
    • Eb
    • E
    • F
    • F#
    • G
    • Ab
  • Agregar a la lista
    00:00 / 00:00
    OK