Cifra Club

Las Flores

Cafe Tacuba

Cifrado: Principal (guitarra y guitarra eléctrica)
tono: Bb
Intro: Bb  Dm  Eb  F

Verso:
Bb    Dm        Eb    F
Ven y dime todas esas cosas
Bb   Dm         Eb    F
invitame a sentarme junto a ti
Bb    Dm        Eb    F
escuchare todos tus sueños en mi oído
Bb    Dm        Eb    F
Y dejame estrechar tus manos
Bb    Dm        Eb    F
y regalarte unas pocas de ilusiones
Bb    Dm        Eb    F
ay ven y cuentame una historia
Bb     Dm    Eb     F
que me haga sentir bien

Coro:
Dm            Ebm7
Yo te escuchare
Dm            Ebm7
con todo el silencio del planeta
Dm            Ebm7
y mirare tus ojos
Dm            Ebm7             F
como si fueran los ultimos de este pais

Puente: 
Bb Dm Eb F (4x)

Verso:
Bb   Dm         Eb   F
Ay dejame ver como es que floreces
Bb   Dm         Eb   F
con cinco petalos te absorbere
Bb   Dm         Eb   F
cinco sentidos que te roban solo un poco de tu ser
Bb   Dm         Eb   F
y seis veces para vivirte
Bb   Dm         Eb   F
debajo de una misma luna
Bb   Dm         Eb   F
y otras nueve pasaran para sentir que nuevas flores nacerán

Coro:
Dm         Ebm7     Dm            Ebm7
Y que cada estrella fuese una flor
Dm            Ebm7
y asi regalarte
Dm        Ebm7    F
todo un racimo de estrellas

Solo: 
E|--13---13---15---13----------------------------13--:
B|--15----------------16--15--16----15--16---15------:
G|--14-----------------------------------------------:
D|---------------------------------------------------:
A|---------------------------------------------------:
E|---------------------------------------------------:
      
E|--13---13---15---13----------------------------13--:
B|--15----------------16--15--16----15--16---15------:
G|--14-----------------------------------------------:
D|---------------------------------------------------:
A|---------------------------------------------------:
E|---------------------------------------------------:

E|--18-18-18-18--17-17-17--15-15-15---13-13-13-------:
B|---------------------------------------------------:
G|---------------------------------------------------:
D|---------------------------------------------------:
A|---------------------------------------------------:
E|---------------------------------------------------:

E|-13-15-13----13----------13----------13------------:
B|----------16----16-15-16----16-15-16----16-15-13---.
G|---------------------------------------------------:
D|---------------------------------------------------:
A|---------------------------------------------------:
E|---------------------------------------------------:

Salida:
   Bb           Dm/A
No dejes que amanezca
         Ab           Eb/G
no dejes que la noche caiga
         Ebm/Gb     F
no dejes que el sol salga
     C/E    F             Bb
solo dejame estar junto a ti
Composición de E. Del Real
Colaboración y revisión:
  • Johan Beltrán
2.567 vistas
    • ½ Tono
    • A
    • Bb
    • B
    • C
    • Db
    • D
    • Eb
    • E
    • F
    • F#
    • G
    • Ab
  • Agregar a la lista

    0 comentarios

    Ver todos los comentarios

    ¿Lograste tocar?

    1 Tocaron 0 Aún no

    ¡Graba un video tocando Las Flores y envíanoslo!

    00:00 / 00:00
    Outros vídeos desta música
    Repetir Calidad Automático
    Outros vídeos desta música
    00:00 / 00:00
    Automático
    OK