Cifra Club

Madrugal

Café Tacvba

Cifrado: Versão 2 (guitarra y guitarra eléctrica)
tono: E
Intro

   A                                 
E|--16--14-16-12----------------------15--12-12---------------------|
B|--14-----------14-12----------12-14-----------14-14-------12-14---|
G|--14-----------------14-13-14-----------------------15-15-------15|
D|--14--------------------------------------------------------------|
A|------------------------------------------------------------------|
E|------------------------------------------------------------------|

  E             (h)(p)                            C#7
E|--------------12-14-12---------------------------------------------|
B|-12-12-14-16-----------16-14-12-------------------------------| 12--|
G|--------------------------------14-13-14-13-| 13-----------13-14--13|
D|--------------------------------------------15-15------------------|
A|-------------------------------------------------16-14-16----------|
E|-------------------------------------------------------------------|

  F#m                    B7           E
E|-----------------------16-14-16-14--12| ----------------------------|
B|----------12-14-12-14--16----16-----12-----------------------------|
G|-14-13-14--------------14----14-----13-----------------------------|
D|-------------------------------------------------------------------|
A|-------------------------------------------------------------------|
E|-------------------------------------------------------------------|

E|---------------------------------------|
B|---------12(h)14(p)12--12-14-12--------|
G|---------------------14--------15-14-13|
D|---------------------------------------|
A|---------------------------------------|
E|---------------------------------------|
00:00 / 00:00
Otros videos de esta canción
Repetir
Otros videos de esta canción
Composición de Elorza Rangel
1 exhibiciones
    • ½ Tono
    • A
    • Bb
    • B
    • C
    • Db
    • D
    • Eb
    • E
    • F
    • F#
    • G
    • Ab
  • Agregar a la lista
    00:00 / 00:00
    OK