Cifra Club

María

Cafe Tacuba

Tablatura: Principal (guitarra)
Tom: E
Intro:

E|-9-9-x-x-9-9-9--12-11-10-10--9--9--x-x--9--9--9---7-7-9-7--|
B|-9-9-x-x-9-9-9---9--9--9--9--10-10-x-x--10-10-10--9-9-9-9--|
G|-9-9-x-x-9-9-9---------------9--9--x-x--9--9--9---9-9-9-9--|
D|-----------------------------------------------------------|
A|-----------------------------------------------------------|
E|-----------------------------------------------------------|

Verso:
C#m           E       A   G#m
Sale sola de noche María
C#m       E     A    G#m
pena por la ciudad
C#m              E              A  G#m
recorriendo las calles que un día
               F#m      E   F#m
negó besos en la oscuridad
E|--9-9-x-x-9-9-9-|
B|--9-9-x-x-9-9-9-|
G|--9-9-x-x-9-9-9-|
D|----------------|
A|----------------|
E|----------------|
               E        A   G#m
Y se nubla la vista María
C#m           E      A    G#m
porque duele recordar
C#m              E       A    G#m
que los besos negados María
        F#m         E
nunca mas regresarán
F#m E
ah ah

Puente: F#m  E (2x)

Verso: 
C#m                E        A  G#m
En las noches por ese camino
C#m                E   A  F#m
algo extraño suele pasar
C#m               E          A  G#m
al sentir en los labios el frió
          F#m              E
de otros labios que no verás
E|--9--12-11-10-10---9--7-7-9-7-|
B|--9---9--9--9--9---7--9-9-9-9-|
G|--9---9--9--9--9---9--9-9-9-9-|
D|------------------------------|
A|------------------------------|
E|------------------------------| 2x
Es María quien pena en las calles debajo de un farol
C#m            E        A     G#m
roba besos y vida a la gente
        F#m               E
mientras ella yace en un cajón
F#m E
ah ah
   F#m    E
Maria bonita
   F#m     E
Maria marchita
reproducciones 1.175
Acordes para:
    Composição: Joselo Rangel Colaboración y revision:
    • Johan Beltrán

    0 comentarios

    mostrar más comentarios

    ¿Conseguiste tocar?

    1 tocaron 0 aún no

    ¡Graba un vídeo tocando María y envianoslo!

    00:00 / 00:00
    outros vídeos desta música
    repetir qualidade Automático
    Outros vídeos desta música
    00:00 / 00:00
    Automático
    OK