Cifra Club

Perfidia

Café Tacvba

Cifrado: Principal (guitarra y guitarra eléctrica)
tono: Cm
E|---7--------------------------------9---|-------------------------------9---------|--------------9--7--5--7--9--5--4-------|
B|-------7----6--7--9--7--6--7--6---------|-----6--7--9--7--6--7--6--------7--------|----------------------------------------|
G|----------------------------------------|-----------------------------------------|----------------------------------------|
D|----------------------------------------|-----------------------------------------|----------------------------------------|
A|----------------------------------------|-----------------------------------------|----------------------------------------|
E|----------------------------------------|-----------------------------------------|----------------------------------------|

E|---7--------------------------------9---|-------------------------------9---------|-------------9--7--5--7--9--------------|
B|-------7----6--7--9--7--6--7--6---------|-----6--7--9--7--6--7--6--------7--------|-----------------------------9--7-------|
G|----------------------------------------|-----------------------------------------|----------------------------------------|
D|----------------------------------------|-----------------------------------------|----------------------------------------|
A|----------------------------------------|-----------------------------------------|----------------------------------------|
E|----------------------------------------|-----------------------------------------|----------------------------------------|

E|---7--------------------------------9---|-------------------------------9---------|----------9--7--5--7--9--5--4-----------|
B|-------7----6--7--9--7--6--7--6---------|-------6--7--9--7--6--7--6--------7------|----------------------------------------|
G|----------------------------------------|-----------------------------------------|----------------------------------------|
D|----------------------------------------|-----------------------------------------|----------------------------------------|
A|----------------------------------------|-----------------------------------------|----------------------------------------|
E|----------------------------------------|-----------------------------------------|----------------------------------------|

E|---7--------------------------------9---|-------------------------------9---------|----------9--7--5--7--9-----------------|
B|-------7----6--7--9--7--6--7--6---------|-------6--7--9--7--6--7--6----------7----|----------------------------9--7--------|
G|----------------------------------------|-----------------------------------------|----------------------------------------|
D|----------------------------------------|-----------------------------------------|----------------------------------------|
A|----------------------------------------|-----------------------------------------|----------------------------------------|
E|----------------------------------------|-----------------------------------------|----------------------------------------|

E|---2--4--5--5--5--7--9--9--9--8--9--9--9--8--9--8--9----8-----------|
B|--------------------------------------------------------------6-----|
G|--------------------------------------------------------------------|
D|--------------------------------------------------------------------|
A|--------------------------------------------------------------------|
E|--------------------------------------------------------------------|

E|--------------------------------------------------------9--7--5--4------|
B|---6--7--9--9--9--7--6--6--6--7--6--6--6--7--6--------------------------|
G|------------------------------------------------------------------------|
D|------------------------------------------------------------------------|
A|------------------------------------------------------------------------|
E|------------------------------------------------------------------------|

E|---7--------------------------------9---|-------------------------------9---------|----------9--7--5--7--9--------------|
B|-------7----6--7--9--7--6--7--6---------|-----6--7--9--7--6--7--6------------7----|----------------------------9--7-----|
G|----------------------------------------|-----------------------------------------|-------------------------------------|
D|----------------------------------------|-----------------------------------------|-------------------------------------|
A|----------------------------------------|-----------------------------------------|-------------------------------------|
E|----------------------------------------|-----------------------------------------|-------------------------------------|

E|--------------------|-------------------|-------------------|-----------------| *
B|-------------------|-------------------|-------------------|-----------------|
G|--------------------|-------------------|-------------------|-----------------|
D|-------------13-----|------------12-----|-------------11----|-----------9-----|
A|--------14----------|-------13----------|--------12---------|------10---------|
E|---12---------------|---11--------------|---10--------------|--8--------------|

E|--------------------|--------------------|-------------------|-----------------| *
B|-------------------|--------------------|-------------------|-----------------|
G|--------------------|--------------------|-------------------|-----------------|
D|-------------13-----|------------12------|-------------11----|-----------9-----|
A|--------14----------|-------13-----------|--------12---------|------10---------|
E|---12---------------|---11---------------|---10--------------|--8--------------|

E|---7--------------------------------9---|-------------------------------9-------|----------9--7--5--7--9--5--4-------|
B|-------7----6--7--9--7--6--7--6---------|-----6--7--9--7--6--7--6--------7------|------------------------------------|
G|----------------------------------------|---------------------------------------|------------------------------------|
D|----------------------------------------|---------------------------------------|------------------------------------|
A|----------------------------------------|---------------------------------------|------------------------------------|
E|----------------------------------------|---------------------------------------|------------------------------------|

E|---7--------------------------------9---|-------------------------------9-------|----------9--7--5--7--9-------------|
B|-------7----6--7--9--7--6--7--6---------|-----6--7--9--7--6--7--6--------7------|---------------------------9--------|
G|----------------------------------------|---------------------------------------|------------------------------------|
D|----------------------------------------|---------------------------------------|------------------------------------|
A|----------------------------------------|---------------------------------------|------------------------------------|
E|----------------------------------------|---------------------------------------|------------------------------------|

E|-------------------|--------------------|-------------------|------------------|-------------------| *
B|------------------|--------------------|-------------------|------------------|-------------------|
G|-------------------|--------------------|-------------------|------------------|-------------------|
D|-------------13----|------------12------|-------------11----|------------9-----|------------13-----|
A|--------14---------|-------13-----------|--------12---------|------10----------|--------14---------|
E|---12--------------|---11---------------|---10--------------|--8---------------|---12--------------|
00:00 / 00:00
Otros videos de esta canción
Repetir
Otros videos de esta canción
Composición de Alberto Dominguez
25 exhibiciones
    • ½ Tono
    • Am
    • Bbm
    • Bm
    • Cm
    • C#m
    • Dm
    • Ebm
    • Em
    • Fm
    • F#m
    • Gm
    • G#m
  • Agregar a la lista
    00:00 / 00:00
    OK