Cifra Club

Judas

Cage The Elephant

Tablatura: Principal (guitarra)
Tom: E
(intro) (0:00-0:13)

|--------------------------------|-------------------------|
|----------------8-8-8-8-6-6-----|-----------------8-8-8-8-|
|--------7-7-7-7-------------7-7-|---------7-7-7-7---------|
|5-5-5-5-------------------------|5-5-5-5------------------|
|--------------------------------|-------------------------|
|--------------------------------|-------------------------|

|----------------------------------10-10-10-10-8-8-------|
|6/13-13-13-13---------10-10-10-10-----------------10-10-|
|5/12-12-12-12-7-7-7-7-----------------------------------|
|--------------------------------------------------------|
|--------------------------------------------------------|
|--------------------------------------------------------|

|----------------------|
|------------6/13---11-|
|--------7-7-5/12---10-|
|5-5-5-5---------------|
|----------------------|
|----------------------|

(verso) (0:14-0:27)
|---------------------------------13----------------------|
|------------------------15----------15----15------6/13---|
|7-----------------------14-------------14-14------5/12---|
|7-----------------------12----------------12-------------|
|5--------------------------------------------------------|
|---------------------------------------------------------|

(pré-refrão) (0:28-0:41)
|----5--6--5--6--5---8------8-10--11--10--11--10-----8-|
|------------------6------8----------------------------|
|--7----------------------------------------------10---|
|5-----------------------------------------------------|
|------------------------------------------------------|
|------------------------------------------------------|

(refrão 2x) (0:42-0:55)
|------------------------------------------------|
|15-15-15-15-15-15-15-15-11-11-11-11-11-11-11-11-|
|15-15-15-15-15-15-15-15-12-12-12-12-12-12-12-12-|
|------------------------------------------------|
|------------------------------------------------|
|------------------------------------------------|

|------------------------------------------------|
|13-13-13-13-13-13-13-13-------------11-11-11-11-|
|12-12-12-12-12-12-12-12-10-10-10-10-12-12-12-12-|
|------------------------10-10-10-10-------------|
|------------------------------------------------|
|------------------------------------------------|

(riff 1) (0:56-1:02)
|--------------------------------|-----------------------|
|----------------8-8-8-8-6-6-----|-------------6/13---11-|
|--------7-7-7-7-------------7-7-|---------7-7-5/12---10-|
|5-5-5-5-------------------------|5-5-5-5----------------|
|--------------------------------|-----------------------|
|--------------------------------|-----------------------|

(verso) (1:03-1:16)

(pré-refrão) (1:17-1:31)

(refrão) (1:32-1:44)

(riff 2) (1:45-1:58)
|--------------------------------|------------------------------------|
|----------------8-8-8-8-5-5-----|----------------8-8-8-8-------------|
|--------7-7-7-7-7-7-7-7-5-5-7-7-|--------7-7-7-7-7-7-7-7/17-17-17-15-|
|5-5-5-5-8-8-8-8-------------8-8-|5-5-5-5-8-8-8-8---------17-17-17-15-|
|--------------------------------|------------------------------------|
|--------------------------------|------------------------------------|

|--------------------------------|---------------------|
|----------------8-8-8-8-5-5-----|------------6/13--11-|
|--------7-7-7-7-7-7-7-7-5-5-7-7-|--------7-7-5/12--10-|
|5-5-5-5-8-8-8-8-------------8-8-|5-5-5-5-8-8----------|
|--------------------------------|---------------------|
|--------------------------------|---------------------|

(interlúdeo) (1:59-2:31)
|--------------------------------------|
|8-------------------------11----------|
|7----------------5/12-----10----------|
|x-------------------------------------|
|5-------------------------------------|
|--------------------------------------|

|8-------------------------------------|
|8-------------------------11----------|
|5----------------5/12-----10----------|
|--------------------------------------| (2x)
|--------------------------------------|
|--------------------------------------|

|8-------------------------------------|
|8-------------------------11--------8-|
|5----------------5/12-----10---10---7-|
|-------------------------------10-----| 
|--------------------------------------|
|--------------------------------------|

(guitarra 2)

(verso 2x) (0:00-0:27)
|-----------------------------|----------------------------|
|-----------------------------|----------------------------|
|---------------------5--5-5--|---------------------3--3-3-|
|5--5--5-5-5-5--5--5--5--5-5--|5--5--5-5-5-5--5--5--3--3-3-|
|5--5--5-5-5-5--5--5--3--3-3--|5--5--5-5-5-5--5--5--1--1-1-|
|3--3--3-3-3-3--3--3----------|3--3--3-3-3-3--3--3---------|

|-----------------------------|-----------------------|
|-----------------------------|-----------------------|
|---------------------5--5-5--|----------------3------|
|5--5--5-5-5-5--5--5--5--5-5--|5--5--5-5-5-5---3----3-|
|5--5--5-5-5-5--5--5--3--3-3--|5--5--5-5-5-5---1----3-|
|3--3--3-3-3-3--3--3----------|3--3--3-3-3-3--------1-|

(pré-refrão 2x) (0:28-0:41)
|--------------------------------|------------------------------|
|--------------------------------|------------------------------|
|--------------5-5-5-x-x-3-3-x-x-|--------------5---x-x-3-x-x-x-|
|5-5-x-x-x-x-x-5-5-5-x-x-3-3-x-x-|5-5-x-x-x-x-x-5---x-x-3-x-x-x-|
|5-5-x-x-x-x-x-3-3-3-x-x-1-1-x-x-|5-5-x-x-x-x-x-3---x-x-1-x-x-x-|
|3-3-x-x-x-x-x-------------------|3-3-x-x-x-x-x-----------------|

(refrão) (0:42-0:55)
|----------------------------------------------------------------|
|----------------------------------------------------------------|
|----------------3-3-3-3-3-3-3-3-5-5-5-5-5-5-5-5---------3-3-3-3-|
|5-5-5-5-5-5-5-5-3-3-3-3-3-3-3-3-5-5-5-5-5-5-5-5-3-3-3-3-3-3-3-3-|
|5-5-5-5-5-5-5-5-1-1-1-1-1-1-1-1-3-3-3-3-3-3-3-3-3-3-3-3-1-1-1-1-|
|3-3-3-3-3-3-3-3---------------------------------1-1-1-1---------|

riff 1) (0:56-1:02)
|-----------------------------|---------------------|
|-----------------------------|---------------------|
|---------------------5--5-5--|---------------3-----|
|5--5--5-5-5-5--5--5--5--5-5--|5--5--5-5-5-5--3---3-|
|5--5--5-5-5-5--5--5--3--3-3--|5--5--5-5-5-5--1---3-|
|3--3--3-3-3-3--3--3----------|3--3--3-3-3-3------1-|

(verso) (1:03-1:16)

(pré-refrão) (1:17-1:31)

(refrão 2x) (1:32-1:44)

(verso) (1:45-1:58)

(interlúdio) (1:59-2:31)

|-----------------------------------------|
|-----------------------------------------|
|-----------------------------------------|
|5--3--5--x-x-5--3--5--x-x-5------3-------| (3x)
|5--3--5--x-x-5--3--5--x-x-5------3-------|
|3--1--3--x-x-3--1--3--x-x-3------1-------|

|-----------------------------------------|
|-----------------------------------------|
|------------------------------------3----|
|5--3--5--x-x-5--3--5--x-x-5------3--1--5-| 
|5--3--5--x-x-5--3--5--x-x-5------3--1--5-|
|3--1--3--x-x-3--1--3--x-x-3------1-----3-|

(2:41-3:17)
|--------------------------------|
|--------------------------------|
|----3-3-----3-3---------5--5-5--|
|5-5-3-3-5-5-3-3-5-5-5-5-5--5-5--| (12x)
|5-5-1-1-5-5-1-1-5-5-5-5-3--3-3--|
|3-3-----3-3-----3-3-3-3---------|

|--------------------------------|
|--------------------------------|
|------------------------5--5-5--|
|5-5-8-8-5-5-8-8-5-5-5-5-5--5-5--| (12x)
|5-5-8-8-5-5-8-8-5-5-5-5-3--3-3--|
|3-3-6-6-3-3-6-6-3-3-3-3---------|
reproducciones 35
Acordes para:
    Composição: Cage the Elephant Colaboración y revision:
    • Jefferson Sousa

    0 comentarios

    mostrar más comentarios

    ¿Conseguiste tocar?

    0 tocaron 0 aún no

    ¡Graba un vídeo tocando Judas y envianoslo!

    00:00 / 00:00
    outros vídeos desta música
    repetir qualidade Automático
    Outros vídeos desta música
    00:00 / 00:00
    Automático
    OK