Cifra Club

Afuera

Caifanes

Cifrado: Principal (guitarra y guitarra eléctrica)
tono: Bm
[Intro] 

E|----------------------|---------------------|---------------------|----|
B|----------------------|---------------------|---------------------|----|
G|----------------------|---------------------|---------------------|----|
D|--9--7-------9-7---7--|-9--7-------9-7---7--|-9--7-------9-7---7--|-9--|
A|--------9--------9----|-------9--------9----|---------9--------9--|----|
E|----------------------|---------------------|---------------------|----|

Bm
Muchos años uno cree

Que el caer es levantarse
        E              
Y de repente, ya no te paras
 
Bm
Que el amor es temporal

Que todo te puede pasar
        E
Y de repente, estas muy solo 

   Bm                  Em           F#7
Afuera, afuera tu no existes solo adentro
   Bm                  Em         F#7
Afuera, afuera no te cuido solo adentro
   Bm                     Em          F#7
Afuera, te desbarata el viento sin dudarlo
   Bm             Em         F#7
Afuera, nadie es nada solo adentro
G   A   Bm
Ah, ah, ah

Bm
Siguen los años y uno esta

Creyendo que puede rezar
       E
Y de repente, ya te perdiste
 
Bm
Y uno cree que puede creer

Y tener todo el poder
      E
Y de repente, no tienes nada 

   Bm                  Em           F#7
Afuera, afuera tu no existes solo adentro
   Bm                  Em         F#7
Afuera, afuera no te cuido solo adentro
   Bm                     Em          F#7
Afuera, te desbarata el viento sin dudarlo
   Bm             Em         F#7
Afuera, nadie es nada solo adentro
G   A   Bm
Ah, ah, ah

[Solo] 

E|-10-7-9----------10-7-9---------10-7-9---------|
B|--------9-7-------------9-7------------9-7-----|
G|------------9-7-------------9-7------------9-7-|
D|-----------------------------------------------|
A|-----------------------------------------------|
E|-----------------------------------------------|

E|-----------------------------------------------|
B|-----------------------------------------------|
G|--7--7--7--7-7-7-7----7-7-7-7-6-4-2-2/4--------|
D|-----------------------------------------------|
A|-----------------------------------------------|
E|-----------------------------------------------|

E|-----------------------------------------------|
B|-----------------------------------------------|
G|--7-7-7-7-6-7-9/11--11-11--11--9--7--6-4-------|
D|-----------------------------------------------|
A|-----------------------------------------------|
E|-----------------------------------------------|

E|-----------------------------------------------|
B|-----------------------------------------------|
G|-7-9/11--11---11--11-9-7-9--9/11--11--11--11---|
D|-----------------------------------------------|
A|-----------------------------------------------|
E|-----------------------------------------------|

E|-----------------------------------------------|
B|-----------------------------------------------|
G|-7-9/11--11---11--11-14-12--11-12-11~~~~~------|
D|-----------------------------------------------|
A|-----------------------------------------------|
E|-----------------------------------------------|
                                 h  p
E|-----------------------------------------------|
B|-----------------------------------------------|
G|-7-9/11--11-------14----12---11^12^11---9--7---|
D|-----------------------------------------------|
A|-----------------------------------------------|
E|-----------------------------------------------|
                h
E|-----------------------------------------------|
B|-----------10^12-----10------------------------|
G|-7-9/11--11------------------11~~~~~-----------|
D|-----------------------------------------------|
A|-----------------------------------------------|
E|-----------------------------------------------|

E|-----------------------------------------------|
B|-12--10--12--10--------------------------------|
G|----------------11-------9--7---9--7-----------|
D|----------------------------------9--7--9------|
A|-----------------------------------------------|
E|-----------------------------------------------|

E|-----------------------------------------------|
B|-----------------------------------------------|
G|------------------6--~~~~----------------------|
D|-----9--9---7--9-----9-------------------------|
A|--/9-------------------------------------------|
E|-----------------------------------------------|

   Bm                  Em           F#7
Afuera, afuera tu no existes solo adentro
   Bm                  Em         F#7
Afuera, afuera no te cuido solo adentro
   Bm                     Em          F#7
Afuera, te desbarata el viento sin dudarlo
   Bm             Em         F#7
Afuera, nadie es nada solo adentro
G   A   Bm
Ah, ah, ah
00:00 / 00:00
Otros videos de esta canción
Repetir
Otros videos de esta canción
Composición de Saul Hernández
Colaboración y revisión:
  • Paul Ullauri
  • Manuel Lau
14.743 exhibiciones
    • ½ Tono
    • Am
    • Bbm
    • Bm
    • Cm
    • C#m
    • Dm
    • Ebm
    • Em
    • Fm
    • F#m
    • Gm
    • G#m
  • Agregar a la lista
    00:00 / 00:00
    OK