Cifra Club

Sera Por Eso

Caifanes

Cifrado: Principal (guitarra y guitarra eléctrica)
Selo Cifra Club: esta cifra foi revisada para atender aos critérios oficiais da nossa Equipe de Qualidade.
tono: D
ESTA ES LA VERSION EN VIVO CUANDO FUE LA PRESENTACION DEL DISCO EL NERVIO DEL VOLCAN  
YA QUE EN ESTUDIO SE TOCA UN POQUITO MAS RAPIDO SALUDOS 

empieza 
G|---------------------------------------- 
D|---------------------------------------- 
A|---------------------------------------- 
E|---0-000--0-000--0-000--0-000-000--0-000 

desde aquel dia me trajeron para aca sera  
por que no me dejaba rasurar 
G|------------------------------------------ 
D|------------------------------------------ 
A|------------------------------------------ 
e|--0-000-0-000-0-000-0-000-0-000-000-0-000- 

ya no me hablan ni siquiera las hormigas 
G|----------------------------------------- 
D|----------------------------------------- 
A|------7----------------------6----------- 
E|7------------77--------7-------------77-- 

sera por que no saben que ando por aqui 
G|----------------------------------------- 
D|----------------------------------------- 
A|------4-----------------------3---------- 
E|4------------44---------3-------------33- 

****los sostienes en fa sostenido  de este modo 
que tape todo***** 
G|----------------------- 
D|----------------------- 
A|----------------------- 
e|--2222222222222222222-- 

desde aquel dia no me he dejado tocar  
G|----------------------------------------- 
D|----------------------------------------- 
A|-------7-----------------------6--------- 
E|7-------------77--------7------------77-- 

solo mis unñas me pueden acariciar 
G|----------------------------------------- 
D|----------------------------------------- 
A|-------4----------------------3---------- 
E|4-------------44--------3------------33-- 

por eso me pongo un saco  

G|-------------------------------------- 
D|----4---2----------------------------- 
A|-------------------------------------- 
E|------------3-2--2*--5---2------------ 
        *slide 

tomo la navaja 
G|-------------------------------------- 
D|----4---2----------------------------- 
A|-------------------------------------- 
E|------------3-2--2*--5---2------------ 
              *slide 
y salgo a clavar 
G|--------------------- 
D|---------------------- 
A|---------------------- 
E|-------5-----8888888-- 

sera por eso que no me dejan salir 
G|----------------------------------------- 
D|----------------------------------------- 
A|------5-----------------------9---------- 
E|5------------55---------9-------------99- 

sera por eso que me dan electroshocks 
G|----------------------------------------- 
D|----------------------------------------- 
A|------3---------------------------------- 
E|3------------33---------2-----------2222- 

sera por eso que no me dejan salir 
G|----------------------------------------- 
D|----------------------------------------- 
A|------5-----------------------9---------- 
E|5------------55---------9-------------99- 

sera por eso que me dan electroshocks 
G|----------------------------------------- 
D|----------------------------------------- 
A|------3---------------------------------- 
E3------------33---------2-----------2222- 

BUENO YA DE AHI SE SIGUE LA MISMA ESTRUCTURA BUENO OJALA Y LES SIRVA 
MANDEN TABLATURAS DE BAJO LAS DE CAIFANES Y TODAS LAS QUE TENGAN ADIOS
Otros videos de esta canción
    1.174 exhibiciones
      • ½ Tono
      • A
      • Bb
      • B
      • C
      • Db
      • D
      • Eb
      • E
      • F
      • F#
      • G
      • Ab
    • Agregar a la lista

    Afinación de cifrado

    Afinador online

      OK