Cifra Club

Hem Of Your Garment

Cake

Tab de bajo: Principal
 Verso

  Cm
G|---------------5--33-----------|
D|.--------------------6-5-3------|
A|.-3-3----3--3--------------6--|
E|------3------------------------|

  Dm
G|-------------------------------|
D|---------------------3-5--6-5-.| verso
A|--5-5----5--5----5-6----------.|
E|------5------------------3-----|


 Solo

  Cm
G|-------------------------------|
D|.------------------------------|
A|.-3-3----3--3---3-55-6--3-5-6--|
E|------3------------------------|

 Fm
G|-------------------------------|
D|--3-3----3--3---------1-3--1-3-|    
A|------3-------------3----------|
E|-------------1--1--------------|

 Gm
G|-------------------------------|   
D|--------------------3-5----6-5-|   
A|-----------------55------------|
E|--3-3-0--3--3--3---------3-----| 

  Eb
G|-------------------------------|        
D|------------------------------.| Repete         
A|--6-6----6-6--6-------6----6-5.|        
E|------6----------33--6----6----|
00:00 / 00:00
Otros videos de esta canción
Repetir
Otros videos de esta canción
Composición de John McCrea
Colaboración y revisión:
  • Andre
57 vistas

0 comentarios

Ver todos los comentarios
00:00 / 00:00
OK