Cifra Club

Italian Leather Sofa

Cake

Cifrado: Principal (guitarra y guitarra eléctrica)
Selo Cifra Club: esta cifra foi revisada para atender aos critérios oficiais da nossa Equipe de Qualidade.
tono: C
Intro Base
e|---------------------------------------------------------- 
B|---------------------------------------------------------- 
G|-5-5-555-------------------------------------------------- 
D|-3-3-333---22--222---------------------------------------- 
A|-3-3-333---22--000---------------------------------------- 
E|-----------00--000----------------------------------------

Intro Solo 
e|----------------------------------------------------------- 
B|----------------------------------------------------------- 
G|----------------------------------------------------------- 
D|--------2-3-5------------2-3-2----------------------------- 
A|-3-3-3-------------3-3-3-------3--------------------------- 
E|-----------------------------------------------------------
Otros videos de esta canción
    3.504 exhibiciones
      • ½ Tono
      • A
      • Bb
      • B
      • C
      • Db
      • D
      • Eb
      • E
      • F
      • F#
      • G
      • Ab
    • Agregar a la lista

    Afinación de cifrado

    Afinador online

      OK