Cifra Club

Mahna Mahna Intro

Cake

Cifrado: Principal (guitarra y guitarra eléctrica)
tono: C
e|-------------------------------------------|
b|-------------------------------------------|
g|--------7-----------------7----------------|
d|--7-10----9--------7--10----9--------------|
a|------------10-----------------------------|
E|-------------------------------------------|

e|-------------------------------------------|
b|-------------------------------------------|
g|--------8-9----8-9----8-9------------------|
d|--7-10------10-----10-----10-7-----7--10---|
a|--------------------------------10---------|
E|-------------------------------------------|

Compositor não encontrado.
20 vistas
    • ½ Tono
    • A
    • Bb
    • B
    • C
    • Db
    • D
    • Eb
    • E
    • F
    • F#
    • G
    • Ab
  • Agregar a la lista

    0 comentarios

    Ver todos los comentarios
    00:00 / 00:00
    Outros vídeos desta música
    Repetir Calidad Automático
    Outros vídeos desta música
    00:00 / 00:00
    Automático
    OK