Cifra Club

Perhaps, Perhaps, Perhaps

Cake

Tab de bajo: Principal
Acompaña nuestras novedades de Cifra Club en español.
¡Sigue nuestro perfil en Instagram!
Tabbed By: Stradavus

Intro
G|--------------------------|--------------------------|
D|--------------------------|--------------------------|
A|--3-----------------------|--3-----------------------|
E|-----3--6--1--4--0--3-----|-----3--6--1--4--0--3-----|


Verse                                                                 
G|--------------------------|--------------------------|--------------------------|--------------------------|
D|--------------------------|--3--3--3--3--3--3--3-45--|--------------------------|--3--3--3--3--3--3--3-45--|
A|--3--3--3--3--3--3--3--3--|--------------------------|--3--3--6--3--3--3--6--3--|--------------------------|
E|--------------------------|--------------------------|--------------------------|--------------------------|
                                                        First Ending                  
G|--------------------------|--------------------------|--------------------------|
D|--------------------------|--------------------------|--------------------------|
A|--3--3--6--3--------------|----------------------|3|-|--|3|---------------------|
E|--------------6--6--6543--|--3--3--3--3--1--1636--|--|---^--3--6--1--4--0--3----|
                                                    |      ^
                                                    |------^
Second Ending
|--------------------------|
|--------------------------|
|--3--3--3--3--3--------3--|
|-----------------3636-----|


Chrous                                                 
G|--------4-------4---------|----------4---------------|--------------------------|--------------|
D|--5--5-------5------------|---5--5--5-5----2---------|--------------------------|--------------|
A|--------------------------|--5------------2--3-3-3-3-|--3--3--3--3--3--3--3--3--|--3--3--3--3--|
E|------------------3--567--|-7------------3-----------|--------------------------|--------------|

G|--------4-------4---------|----------4---------------|--------------|
D|--5--5-------5------------|---5--5--5-5----2---------|--------------|
A|--------------------------|--5------------2--3-3-3-3-|--3--------3--|
E|------------------3--567--|-7------------3-----------|-----3636-----|


Outro
G|--------------------------|--------------------------|--------------------------|--------------------------|
D|--------------------------|--3--3--3--3--3--3--3-45--|--------------------------|--3--3--3--3--3--3--3-45--|
A|--3--3--3--3--3--3--3--3--|--------------------------|--3--3--6--3--3--3--6--3--|--------------------------|
E|--------------------------|--------------------------|--------------------------|--------------------------|

G|--------------------------|--------------------------|--------------|--------------------------|--5--------|
D|--------------------------|--------------------------|--------------|--------------------------|-----5-----|
A|--3--3--5--3--------------|-----------------------3--|------------3-|--------------------------|--------3--|
E|--------------6--6--6543--|--3--3--3--3--1--1636-----|---4----3-----|--4--4--4--4--4--4--4-43--|-----------|


***Order***
Intro
Verse - First Ending
Chorus
Verse - First Ending
Chorus
Outro
Composición de Joe Davis / Osvaldo Farrés
35 vistas

0 comentarios

Ver todos los comentarios
00:00 / 00:00
Outros vídeos desta música
Repetir Calidad Automático
Outros vídeos desta música
00:00 / 00:00
Automático
OK