Cifra Club

Sheep Go To Heaven

Cake

Cifrado: Principal (guitarra y guitarra eléctrica)
tono: D
Riff 1:
Guitarra 1:
    A5
E|-------------------------------------------------------------------
B|-------------------------------------------------------------------
G|-------------------------------------------------------------------
D|--7--X---X--X--X--X--X---7--7--7---X--X---X--X----7--7--7---X---X--
A|--7--X---X--X--X--X--X---7--7--7---X--X---X--X----7--7--7---X---X--
E|--5--X---X--X--X--X--X---5--5--5---X--X---X--X----5--5--5---X---X--

             D5    A5
E|--------------------------------|
B|--------------------------------|
G|-----------7--7-----------------|
D|-X--X--X---7--7--7--7--7--7--7--|
A|-X--X--X---5--5--7--7--7--7--7--|
E|-X--X--X---------5--5--5--5--5--|

Guitarra 2:
E|--------------------------------|
B|---10^^-------7--5h7p5^---------|
G|-------------------------5p4p2--|
D|--------------------------------|
A|--------------------------------|
E|--------------------------------|

E|---------------------------------|
B|---10^^------7-7-5h7p5-----------|
G|-----------------------5p4~~-2~~-|
D|---------------------------------|
A|---------------------------------|
E|---------------------------------|

---------------------------------------
Intro:
Guitarra 1:3x

Guitarra 2:2x(Começa na 2ª vez da guit.1)

Verso 1:
Riff 1:(só a guitarra 1!)
I'm not feeling alright today
I'm not feeling that great
I'm not catching on fire today
Love has started to fade

Riff 1:
I'm not going to smile today
I'm not gonna laugh
You're out living it up today
I've got dues to pay

Verso 2:
2x
E|-----------------------------------|
B|-----------------------------------|
G|-----------------------------------|
D|-----------------------------------|
A|------4-4-5-5-7--5-4---4-4-5-5-7-7-|
E|--5-5----------------5-------------|
And the gravedigger puts on the forceps
The stonemason does all the work

The barber can give you a haircut

E|--6--4--2-------------------|
B|------------5--4--2---------|
G|----------------------4-2b--|
D|----------------------------|
A|----------------------------|
E|----------------------------|
The carpenter can take you out to lunch

2x
E|-----------------------------------|
B|-----------------------------------|
G|-----------------------------------|
D|-----------------------------------|
A|------4-4-5-5-7--5-4---4-4-5-5-7-7-|
E|--5-5----------------5-------------|
Now I just want to play on my panpipes
I just want to drink me some wine

As soon as you're born you start dyin'

E|--6--4--2-------------------|
B|------------5--4--2---------|
G|----------------------4-2b--|
D|----------------------------|
A|----------------------------|
E|----------------------------|
So you might as well have a good time

Refrão:
D                  Em
Sheep go to heaven Goats go to hell
D                  Em
Sheep go to heaven Goats...go to hell

Riff 1(só a 2ªguitarra!)

Verso 3:

Riff 1:(sem a segunda guitarra!)
I don't wanna go to Sunset Strip
I don't wanna feel the emptiness
Old marquees with stupid band names
I don't wanna go to Sunset Strip

Riff 1:
I don't wanna go to Sunset Strip
I don't wanna feel the emptiness
Old marquees with stupid band names
I don't wanna go to Sunset Strip

SOLO:
Guitarra 1: 
E|---------------------------------------------------------------------------|
B|---------------------------------------------------------------------------|
G|---------------------------------------------------------------------------|
D|---------------------------------------------------------------------------|
A|-12-10-------------------12-10-------------------12-10---------------------|
E|---------12-10-9-5-9-5---------12-10-9-5-9-5---------12-10-9-5-9-5-9-5-9-5-|

Guitarra 2:
E|--------------------------------|--------------------------------------------
B|--------------------------------|--------------------------------------------
G|--------------------------------|--------------------------------------------
D|--------------------------------|--------------2-2-2-2-2-2-----2-2-2-2-2-2---
A|-0------------------------------|-----0--------------------------------------
E|----------3b-------2b-------1b--|---------------------------3--------------2-

3x
E|--------------------------------|
B|--------------------------------|
G|--------------------------------|
D|--2-2-2-2-2-2-------------------|
A|--------------------------------|
E|------------------1----0--1--2--|

Verso 4:
2x
E|-----------------------------------|
B|-----------------------------------|
G|-----------------------------------|
D|---------------------------7-7-9-9-|
A|------4-4-5-5-7--5-4---4-4-5-5-7-7-|
E|--5-5----------------5-------------|
And the gravedigger puts on the forceps
The stonemason does all the work

The barber can give you a haircut

E|--6--4--2-------------------|
B|------------5--4--2---------|
G|----------------------4-2b--|
D|----------------------------|
A|----------------------------|
E|----------------------------|
The carpenter can take you out to lunch

2x
E|-----------------------------------|
B|-----------------------------------|
G|-----------------------------------|
D|-----------------------------------|
A|------4-4-5-5-7--5-4---4-4-5-5-7-7-|
E|--5-5----------------5-------------|
Now but I just want to play on my panpipes
I just want to drink me some wine

As soon as you're born you start dyin'

E|--6--4--2-------------------|
B|------------5--4--2---------|
G|----------------------4-2b--|
D|----------------------------|
A|----------------------------|
E|----------------------------|
So you might as well have a good time

Refrão:(vai até o final)
D                  Em
Sheep go to heaven Goats go to hell
D                  Em
Sheep go to heaven Goats go to hell
Composición de John McCrea
Colaboración y revisión:
  • Taino Vieira
47 vistas
    • ½ Tono
    • A
    • Bb
    • B
    • C
    • Db
    • D
    • Eb
    • E
    • F
    • F#
    • G
    • Ab
  • Agregar a la lista

    0 comentarios

    Ver todos los comentarios
    00:00 / 00:00
    Outros vídeos desta música
    Repetir Calidad Automático
    Outros vídeos desta música
    00:00 / 00:00
    Automático
    OK