Cifra Club

War Pigs

Cake

Cifrado: Principal (guitarra y guitarra eléctrica)
Selo Cifra Club: esta cifra foi revisada para atender aos critérios oficiais da nossa Equipe de Qualidade.
tono: Cm

Verse I:
E|-----------------------|
B|-----------------------|
G|-----------------------|
D|---8-10----------------|
A|---8-10----------------|
E|---6--8----------------| x7

E|------------------------|
B|------------------------|
G|-8\---------------------|
D|-8\-8-10----------------|
A|----8-10----------------|
E|----6--8----------------| x3

Chorus:
(Oh lord yeah!)
Guitar I
E|-------------------------------------|
B|-------------------------------------|
G|-----------------------------8\------|
D|---8-10--13-12-11--10--------8\------|
A|---8-10--13-12-11--10----------------|
E|---6--8--11-10--9---8----------------|

Guitar II
First time
E|-11^13^11------11--------------------|
B|----------11h13--13p11-13------------|
G|-------------------------------------|
D|-------------------------------------|
A|-------------------------------------|
E|-------------------------------------|

Second time
E|-13^15^13-------11-------------------|
B|-----------11h13--13p11-13-----------|
G|-------------------------------------|
D|-------------------------------------|
A|-------------------------------------|
E|-------------------------------------|

Second Verse:
sometimes:
E|-------------------------------------|
B|-------------------------------------|
G|--------8\---------------------------|
D|--------8\--------10p8---------------|
A|-------------------------------------|
E|-8-8-8-8--8--8--8------11------------|

and sometimes:
E|-------------------------------------|
B|-------------------------------------|
G|-------------------------------------|
D|--------10p8--------10p8-------------|
A|-------------------------------------|
E|-8-8-8-8-----8--8--8------11---------|

(Chorus)

Verse 3: same as verse I:

E|-----------------------|
B|-----------------------|
G|-----------------------|
D|---8-10----------------|
A|---8-10----------------|
E|---6--8----------------| x7

E|------------------------|
B|------------------------|
G|-8\---------------------|
D|-8\-8-10----------------|
A|----8-10----------------|
E|----6--8----------------| x3

(Chorus)

Outro:

Guitar
E|---------------------------------------------|
B|---------------------------------------------|
G|----3---3----5---3--------------------8------|
D|---5-5-5--5--5-5-3------8-----8----10-8-10---|
A|-33---3--3---3-5-1----10-10-10--10-10-6-10---|
E|---------------3----88-----8---8----8----8---|

E|-------------------------------------|
B|-------------------------------------|
G|-----3---3-------1---1---------------|
D|----5-5-5--5----3-3-3--3-------------|
A|-3-3---3--3--1-1---1--1--------------|
E|-------------------------------------| x4 (Bass in after two)

Trumpet plays:
E|-8--8-10-11-10-11-10--10---------8--8-10-11-13-13-10---------|
B|-------------------------11-8-11---------------------11------|
G|-------------------------------------------------------------|
D|-------------------------------------------------------------|
A|-------------------------------------------------------------|
E|-------------------------------------------------------------|

E|-8--8-10-11-10-11-10--10---------8--8-10-11-13-13-10-13-15~--|
B|-------------------------11-8-11-----------------------------|
G|-------------------------------------------------------------|
D|-------------------------------------------------------------|
A|-------------------------------------------------------------|
E|-------------------------------------------------------------|

E|-----------------------|
B|-----------------------|
G|-----------------------|
D|---8-10----------------|
A|---8-10----------------|
E|---6--8----------------|
Otros videos de esta canción
    247 exhibiciones
      • ½ Tono
      • Am
      • Bbm
      • Bm
      • Cm
      • C#m
      • Dm
      • Ebm
      • Em
      • Fm
      • F#m
      • Gm
      • G#m
    • Agregar a la lista

    Afinación de cifrado

    Afinador online

      OK