Cifra Club

El Espejo

Callejeros

Cifrado: Principal (guitarra y guitarra eléctrica)
tono: F#
  F#                            C#   C#7 C#  D#m
Caer fue lo más soberbio Que la vida te pudo dar.
       F#                      C#   C#7  C#   D#m
En la calle encontraste Las razones para parar De sangrar

              A#m
Se fue despertando el alma,
            B                  F#
Oyendo “El nudo” Volviste a escuchar.
              G#m           B         F#
La vida es un sueño,  Y tu sueño es cantar.


ESTRIBILLO

B                F#
Cada vez que te puedo ver,
    C#            B
Te pido que no te dejes
          F#            C#
Porque no me quiero perder.
B                    F#
Cada vez que en el espejo Estas
      C#            B
esta cara Es la que ladra
     F#           D#m              C#
y la tuya La que tiene que escuchar.
     B      C#      D#m
Laralara lalala   lalalala

Después de cada estribillo hace un punteo medio corto que es algo asi
(aclaro que no esta del todo bien esto pero no puedo sacar lo
correcto asique es para que tengan una idea y se aventuren ustedes
y el que lo saque que lo cuelgue):


E|--------------------------------------------------|
B|----6-7--9-7-6-7-6--------------------------------|
G|--8----------------8--6-4~-3~-3/4-3~-4-3-1--1-4-3-|
D|--------------------------------------------------|
A|--------------------------------------------------|
E|--------------------------------------------------|

E|--------------------------------------------------|
B|--------------------------------------------------|
G|---4~---4h3-6~---6h4-8-------a| ca hace algo--------|
D|-----------------------------q| ue no puedo sacar---|
A|-----------------------------s| e me complica-------|
E|--------------------------------------------------|


             A#m
Te fuiste sintiendo vivo
          B                F#                     G#m
Haciendo “creo” pudiste Aceptar que todo pasa por algo
            B                  F#
Y que de la nada se puede escapar.

B                F#
Cada vez que te puedo ver,
    C#            B
Te pido que no te dejes
          F#            C#
Porque no me quiero perder.
B                    F#
Cada vez que en el espejo Estas
      C#            B
esta cara Es la que ladra
     F#           D#m              C#
y la tuya La que tiene que escuchar.

Acá después del punteo que escribi arriba va pegado el solo de
guitarra que es algo asi:

E|-------------------------11h13-11h14-11h13-11h14-|
B|-11h12-11h14-11h12-11h14-------------------------|
G|-------------------------------------------------|

E|-13h14-13h16-13h14-13h16-13-16h14h13-16h14h13-16h14h13-16h14h13-|
B|----------------------------------------------------------------|
G|----------------------------------------------------------------|

E|--18~-16-14-16-18~~~--------------------------------|
B|---------------------16~----------------------------|
G|----------------------------------------------------|


        F#
Ni productor ni politico
    C#   C#7   C# D#m
cantante elijiste ser
 F#
A donde fuiste yo estuve
       C# C#7  C#       D#m
para alimentar esa adictiva sed
  A#m
maldades de lo imposible
         B                  F#
siguen tejiendo trampas sin entender
              G#m
que frente al espejo
         B
se cae la careta
         F#
se acaba el poder

   B           F#           C#           B
Cada vez q te puedo ver te pido q no te dejes
         D#m           C#
Porque no me quiero perder
   B              F#
Cada vez q en el espejo estas
         C#           B       F#        D#m             C#
Esta cara es la q ladra y la tuya la q tiene q escuchar


Bueno eso fue,, si alguno llega a sacar esa partecita que yo no
pude subala porque me gustaria saber como es. Es un temazo,, el
mejor del ultimo cd para mi gusto y ta muy bueno para tocar.
1 abrazo no olvidar siempre rrresistir...
00:00 / 00:00
Otros videos de esta canción
Repetir
Otros videos de esta canción
Composición de Pato Fontanet
43 vistas
    • ½ Tono
    • A
    • Bb
    • B
    • C
    • Db
    • D
    • Eb
    • E
    • F
    • F#
    • G
    • Ab
  • Agregar a la lista

    0 comentarios

    Ver todos los comentarios

    ¿Lograste tocar?

    0 Tocaron 0 Aún no

    ¡Graba un video tocando El Espejo y envíanoslo!

    00:00 / 00:00
    OK