Cifra Club

Palo borracho

Callejeros

Cifrado: Principal (guitarra y guitarra eléctrica)
tono: E
INTRO: E -B -A -E -B  x2

E|----------------------------------------------------------------------------------|
B|-----9--------9-----------7-7-----------4----------------------(12)---------------|
G|-(9)---9--(9)---9-------------9-8---------5--5/9-999-8-6-------(11)-11-11-13-11-9-|
D|-(9)----9-(9)----9--(9)-------------(7)---------------------(9)-------------------| x2
A|-(7)------(7)-------(9)-9-----------(7)-------------------------------------------|
E|--------------------(7)-------------(5)-------------------------------------------|



INTRO: E -B -A -E -B 


E|--------------------------------------------------------|
B|-----9--------9-----------7-7----------------------7-7--|
G|-(9)---9-(9)---9----------------------(9)--------8------|
D|-(9)-----(9)-----(9)-------------(7)--(9)---(9)---------|
A|-(7)-----(7)-----(9)-9-----------(7)--(7)---(9)---------|
E|-----------------(7)-------------(5)--------(7)---------|

E|---------------------------------------------------|
B|-----9--------9-----------7-7----------------------|
G|-(9)---9-(9)---9--------------9-8-------(9)--------|
D|-(9)-----(9)-----(9)---------------(7)--(9)---(9)--|
A|-(7)-----(7)-----(9)-9-------------(7)--(7)---(9)--|
E|-----------------(7)---------------(5)--------(7)--|
 E 
Y es que pasa noches
       B 
que da pena,
A       E             B 
verse tirado en un rincón.

Si uno visita seguido al piso,
nunca sentirá que es 'lo mejor'.


E|-------------------|----|------------------------------------|
B|-------------------|----|------------------------------------|
G|-9-9--2-2--4-4-4-4-|----|-2-2-2-2-----------4-4-4-4--9-9-9-9-|
D|-9-9--2-2--4-4-4-4-|-x2-|-2-2-2-2--4-4-4-4--4-4-4-4--9-9-9-9-|
A|-7-7--0-0--2-2-2-2-|----|-0-0-0-0--4-4-4-4--2-2-2-2--7-7-7-7-|
E|-------------------|----|----------2-2-2-2-------------------|

E         A             B 
Vivir quebrando entre 'vivos',
E        A          B 
nunca arañar lo 'mejor'...
A 
Si tenes conciencia
   F#m 
mediando la inconciencia,
    B                       E 
tu diablo de la guarda no falló.


E|-------------------------------------------------------------|
B|-----9--------9-----------7-7------------------------7-7/9-7-|
G|-(9)---9-(9)---9--------------8-7-------(9)--------8---------|
D|-(9)-----(9)----9-(9)-------------(7)---(9)---(9)------------|
A|-(7)-----(7)------(9)-9-----------(7)---(7)---(9)------------|
E|------------------(7)-------------(5)---------(7)------------|

E|---------------------------------------------------|
B|-----9--------9-----------7-7----------------------|
G|-(9)---9-(9)---9--------------9-8-------(9)--------|
D|-(9)-----(9)-----(9)---------------(7)--(9)---(9)--|
A|-(7)-----(7)-----(9)-9-------------(7)--(7)---(9)--|
E|-----------------(7)---------------(5)--------(7)--|

Seguir jugando a caminar,
con la brea de algún callejón,
ir mirando fijo bien al piso,
para rescatarse en la ocasión.

E|-------------------|----|------------------------------------|
B|-------------------|----|------------------------------------|
G|-9-9--2-2--4-4-4-4-|----|-2-2-2-2-----------4-4-4-4--9-9-9-9-|
D|-9-9--2-2--4-4-4-4-|-x2-|-2-2-2-2--4-4-4-4--4-4-4-4--9-9-9-9-|
A|-7-7--0-0--2-2-2-2-|----|-0-0-0-0--4-4-4-4--2-2-2-2--7-7-7-7-|
E|-------------------|----|----------2-2-2-2-------------------|

Vivir quebrando entre 'vivos',
nunca arañar lo 'mejor'...
A 
Si tenes conciencia
   F#m 
mediando la inconciencia,
    B                       E 
tu diablo de la guarda no falló.


E -B -A -E -B  (X2)
E|------------------------------------------------------------------------------|
B|-----9-------9------/14-12--/14-12------9---------14--14h12-12h10-10h9-9h7----|
G|------9-------9--------------------------9----/13-----------------------------|
D|-/9----9--/9---9---------------------/9---9-----------------------------------|
A|------------------------------------------------------------------------------|
E|------------------------------------------------------------------------------|

E|------------------------7-----7------12-9-12-9------------------------|
B|----9----10-9-10-9---/7-9-----9----------------12---10-12-10/12v------|
G|-----9----9-9--9-9------9-----9---------------------------------------|
D|-/9---9---------------------------------------------------------------|
A|----------------------------------------------------------------------|
E|----------------------------------------------------------------------|

E|-------------------|----|------------------------------------|
B|-------------------|----|------------------------------------|
G|-9-9--2-2--4-4-4-4-|----|-2-2-2-2-----------4-4-4-4--9-9-9-9-|
D|-9-9--2-2--4-4-4-4-|-x2-|-2-2-2-2--4-4-4-4--4-4-4-4--9-9-9-9-|
A|-7-7--0-0--2-2-2-2-|----|-0-0-0-0--4-4-4-4--2-2-2-2--7-7-7-7-|
E|-------------------|----|----------2-2-2-2-------------------|


Vivir quebrando entre 'vivos',
nunca arañar lo 'mejor'...

B  tenes conciencia
mediando la inconciencia,
tu diablo de la guarda no falló.


E|-------------------------------------------------------------|
B|-----9--------9-----------7-7---------------9--------7-7/9-7-|
G|-(9)---9-(9)---9--------------8-7-----6-(9)--------8---------|
D|-(9)-----(9)----9-(9)-------------(7)---(9)---(9)------------|
A|-(7)-----(7)------(9)-9-----------(7)---(7)---(9)------------|
E|------------------(7)-------------(5)---------(7)------------|

E|---------------------------------------------------|
B|-----9--------9-----------7-7----------------------|
G|-(9)---9-(9)---9--------------9-8-------(9)--------|
D|-(9)-----(9)-----(9)---------------(7)--(9)---(9)--|
A|-(7)-----(7)-----(9)-9-------------(7)--(7)---(9)--|
E|-----------------(7)---------------(5)--------(7)--|
Y es que siempre caigo
por lo mismo,
pero hoy me ensaño en perdedor,
cuando el sol ya me daba
en la cara, (otra vez),
el vicio que ahoga amotinó.

E|-------------------|----|------------------------------------|
B|-------------------|----|------------------------------------|
G|-9-9--2-2--4-4-4-4-|----|-2-2-2-2-----------4-4-4-4--9-9-9-9-|
D|-9-9--2-2--4-4-4-4-|-x2-|-2-2-2-2--4-4-4-4--4-4-4-4--9-9-9-9-| (x2)
A|-7-7--0-0--2-2-2-2-|----|-0-0-0-0--4-4-4-4--2-2-2-2--7-7-7-7-|
E|-------------------|----|----------2-2-2-2-------------------|

Vivir quebrando entre 'vivos',
nunca arañar lo 'mejor'... oh no!

B  tenes conciencia
mediando la inconciencia,
tu diablo de la guarda no falló.
B  tenes conciencia
mediando la inconciencia,
tu diablo de la guarda no falló.
E|----------------------|
B|----------------------|
G|--------2-2---9-9-9-9-|
D|--4-4---2-2---9-9-9-9-| (x4)
A|--4-4---0-0---7-7-7-7-|
E|--2-2-----------------|

    F#m          A          E 
Tu diablo de la guarda no falló (X2)


FINAL: F#m -A -C -E 
00:00 / 00:00
Otros videos de esta canción
Repetir
Otros videos de esta canción
Composición de R.santos
13 vistas
    • ½ Tono
    • A
    • Bb
    • B
    • C
    • Db
    • D
    • Eb
    • E
    • F
    • F#
    • G
    • Ab
  • Agregar a la lista

    0 comentarios

    Ver todos los comentarios

    ¿Lograste tocar?

    0 Tocaron 0 Aún no

    ¡Graba un video tocando Palo borracho y envíanoslo!

    00:00 / 00:00
    OK