Cifra Club

Presión

Callejeros

Cifrado: Principal (guitarra y guitarra eléctrica)
tono: Fm
Intro: A# -G#  -F  (X 6)

E|-6--4--1------1-1----|
B|-6--4--1------1-1----|
G|-7--5--2-2-2--2-2----|
D|-8--6--3-3-3---------|
A|-8--6--3-3-3---------|
E|-6--4--1-1-1---------|

riff 1
E|-------------|----|
B|-------------|----|
G|-------------|-x2-|
D|-----3-6-(3)-|----|
A|-3-6---------|----|
E|-------------|----|

riff 2
E|--------------------------------------------------|
B|--------------------------------------------------|
G|-(7w)---------------------------------------------|
D|-------2-3/5-3-2-----0-2-2/3-2-0-------2-3/5-3-2--|
A|-----3-----------3-1------------3-1h3-------------|
E|--------------------------------------------------|

riff 3
E|-4-1-----------------(1)----|----|
B|-----4-1-4-1---------(1)----|----|
G|------------3-1------(2)----|-x2-|
D|----------------(3)---------|----|
A|----------------------------|----|
E|----------------------------|----|




F                      (riff 1)
  Como dicen los sabios,
                        (riff 1)
  arriba siempre oscurece.

  Se te secan los labios
  D#     C#          F     A# -G#  -F  (X 2) A# -G#  
y todo, todo te lo ofrecen.

riff 1
E|-------------|----|
B|-------------|----|
G|-------------|-x2-|
D|-----3-6-(3)-|----|
A|-3-6---------|----|
E|-------------|----|


A# 
Da vergüenza ajena ver,
                            F      A# -G#  
la metamorfosis del pibe de barrio.

  A#                       (riff 2)
Que ahora sale en el diario
                                 C 
y busca ser 'rocker' negando sus ruinas,
                  A#              C 
chapeando que desde ahora toma cocaína.

riff 2
E|--------------------------------------------------|
B|--------------------------------------------------|
G|-(7w)---------------------------------------------|
D|-------2-3/5-3-2-----0-2-2/3-2-0-------2-3/5-3-2--|
A|-----3-----------3-1------------3-1h3-------------|
E|--------------------------------------------------|


            C#                 C 
Colgado del brazo de un gato barato,
              C#                 A# 
que le da del plato (cocida y servida)
             F           A#       G#   (riff 3)  F 
la papa que ayuda a aumentar la terrible presión,
       A#        G#        F (riff 3)
a aumentar la terrible presión...
    F  A#  G#   F  A#  G#   F 
Presión!!! Presión!!!



Siempre va a pasar lo mismo
(te aclara siempre la vieja);
El trabajo será un abismo,
si entrás en el juego de cualquiera,
de cualquier idiota.


¿Quién no ha sido blanco fácil
por ser inocente y creer en la gente?
Desesperación,
desesperanza, ya nada te alcanza
y encima te hicieron caer en sus tranzas.
No te dan revancha, sólo quedan nervios
y el miedo a quedarte bajo esta avalancha.
Y todo te ayuda a aumentar la terrible presión,
a aumentar la terrible presión...
Presión!!! Presión!!!
con wah wah
E|---------------------|-----------------------------------|
B|---------------------|-5h6v-------8v-----8v-8-6---v6-----|
G|---------------------|--------5-7---5-7----------7-------|
D|-0h(3)--0h(3)---0(3)-|-----------------------------------|
A|---------------------|-----------------------------------|
E|---------------------|-----------------------------------|


G  O SOBD : F- A#- G#   (X 4)
            F -G#  -A# -G#  -F  (X 3)

F  G#   A#                   G#           F         F -E  (X2)
        Cuando hay algo, hay algo que perder. (X 3)

Presión!!! Presión!!!

FINAL: F -A# -G#   (X 4)
       A#  G#   F 
00:00 / 00:00
Otros videos de esta canción
Repetir
Otros videos de esta canción
Composición de Callejeros
201 exhibiciones
    • ½ Tono
    • Am
    • Bbm
    • Bm
    • Cm
    • C#m
    • Dm
    • Ebm
    • Em
    • Fm
    • F#m
    • Gm
    • G#m
  • Agregar a la lista
    00:00 / 00:00
    OK