Cifra Club

Rocanroles Sin Destino

Callejeros

Tablatura: Principal (guitarra)
Tom: E
G|----------------------------------------------------------------------|
D|---------------------------------------------------------------5-3-2--|
A|---5--------------3-----5---------------------------6-10---3-3--------|
E|-------3---5---6------------3---5---6---1---5---6---------------------|

Entra con el corte (1:50)
G|----------------------------------------------------------------------|
D|-----------------------7-8-9-8-7--------------------------------------|
A|------------5x---3x---8----------10-----------------------------------|
E|--1x---3x-------------------------------------------------------------|

Te llaman si convocas…
G|----------------------------------------------------------------------|
D|----------------------------------------------------------------------|
A|------------------3x----------5x---------------1x---------------------|
E|--1x------------------------------------------------------------------|

Muchas bandas…
G|----------------------------------------------------------------------|
D|----------------------------------------------------------------------|
A|---------3x-----------------------------5x---3x-----------------------|
E|--1x-------------------------6x-----------3x--------------------------|

Y ahí caes en la cuenta…
G|----------------------------------------------------------------------|
D|---------------------------------------------2-3-5--2-3-5-3-2---------|
A|-----------8x-3x-5x--------3x----------3-3------3---------------------|
E|--6x--------------------6x-1x-----6x-1x-------------------------------|

Y ese estruendo…
G|----------------------------------------------------------------------|
D|-----------------2-3-5--2-3-5-3-2-------------------------------------|
A|--5x----------3-3------3------------5x----------8x--------------------|
E|-----3x-5x-6x--------------------------3x-5x-6x-----------------------|

De vivir…
G|----------------------------------------------------------------------|
D|---------------5-6-8----------5-3-2-----------------------------------|
A|----------6x-6------------3x------------------------------------------|
E|---5x-6x--------------3x----------------------------------------------|

Pudieron reír sin llorar… (3:38)            x2 (esta parte nomás)
G|---------------------2-3-5---2-3-5-3-2--| |----------------------|
D|---------------------------3------------| |----------------------|
A|-----------5x-3x---3--------------------| |------8-7-5--5--------|
E|--1x---3x-------------------------------| |---1x------8---8------|
reproducciones 240
Acordes para:
    Composição: Callejeros Colaboración y revision:
    • TintaFresh

    0 comentarios

    mostrar más comentarios

    ¿Conseguiste tocar?

    1 tocaron 0 aún no

    ¡Graba un vídeo tocando Rocanroles Sin Destino y envianoslo!

    00:00 / 00:00
    outros vídeos desta música
    repetir qualidade Automático
    Outros vídeos desta música
    00:00 / 00:00
    Automático
    OK