Cifra Club

Sé que no sé

Callejeros

Cifrado: Principal (guitarra y guitarra eléctrica)
tono: E
Intro:

E|-------------------------------------------------------------------| |
B|-------------------------------------------------------------------| |
G|-------------------------------------------------------------------| |
D|-4-4------------4-4------------4-4------------4-4------------------| |
A|-4-4-x-x-x-x-x--4-4-x-x-x-x-x--4-4-x-x-x-x-x--4-4-x-x-x-x-x--------| |
E|-2-2-x-x-x-x-x--2-2-x-x-x-x-x--2-2-x-x-x-x-x--2-2-x-x-x-x-x--------| |

E|------------------------------------------4--4---4-----------------| |
B|------------------------------------------5----5---5---------------| |
G|------------------------------------------6----------6-------------| |
D|--------------------------1--2-1-----1----6------------------------| |
A|----------1---1--2--4--4-----------4------4------------------------| |
E|-2---2--4----------------------------------------------------------| |

E|------------------2-------0----------------------------------------| |
B|------------------2-------0----------------------------------------| |
G|-3----------------3-------1----------------------------------------| |
D|-4----------------4-------2----------------------------------------| |
A|-4---x-x-x-x-x-x----------2----------------------------------------| |
E|-2---x-x-x-x-x-x----------0----------------------------------------| |

Estrofa:

Se perdió la llave de otro paraíso...

   PM.............................
E|-------------------------------------------------------------------| |
B|--5-5-4-4-2-2-----5-5-4-4-2-2--------------------------------------| |
G|--------------4-4-------------4-4--------9------9------9-------9---| |
D|------------------------------------9h11---9h11---9h11----9h11-----| |
A|-------------------------------------------------------------------| |
E|-------------------------------------------------------------------| |

Se pudieron escapar los prisioneros de la razón...

           PM.............................
E|-------------------------------------------------------------------| |
B|----------5-5-4-4-2-2-----5-5-4-4-2-2-------4--4---4-4-------------| |
G|------9---------------4-4-------------4-4---4--4---4-4-------------| |
D|-9h11---------------------------------------4--4---4-4-------------| |
A|--------------------------------------------2--2---2-2--2-2-4br-2--| |
E|-------------------------------------------------------------------| |

Se convirtieron en demonios los angeles que nadie quiso...

  PM.............................
E|-------------------------------------------------------------------| |
B|--5-5-4-4-2-2-----5-5-4-4-2-2--------------------------------------| |
G|--------------4-4-------------4-4--------9------9------9-------9---| |
D|------------------------------------9h11---9h11---9h11----9h11-----| |
A|-------------------------------------------------------------------| |
E|-------------------------------------------------------------------| |

Se regalaron los besos que nadie vendió...

E|-----------------------3--3--2-------------------------------------| |
B|----------3-3---3-3----3--3--3----4----4-4---5-5--4----------------| |
G|------9---2-2---2-2----2--2--2----4----4-4---4-4--4----------------| |
D|-9h11-----0-0---0-0----0--0--0----4----4-4---4-4--4----------------| |
A|----------------------------------2----2-2---2-2--2----------------| |
E|-------------------------------------------------------------------| |

Se levantó al fin el sol a la luna pero no se ven nunca...
Se mudó al centro la abuelita del cuento con el lobo feroz...
Se ve por el alcohol linda, alguna que es mas linda que nunca...
Se dice que prenderse mucho a la tuca te consume la voz...

(La guitarra es igual)

Estribillo:

Se hizo emoción la inocencia...        Cuando pegó esa sensación...

E|-------------------------------------------------------------------| |
B|--2-----------------------------------2------5-7br-5---------------| |
G|--2-------------------1-----1-4-1-----2----6-----------------------| |
D|--2---2-2-4br-2--4-------4--------4---2--------------------6-9-6---| |
A|--0-----------------------------------0----------------7-9---------| |
E|-------------------------------------------------------------------| |

               Quedamos en presencia de la ausencia del dolor...

E|--------------2----------------------------------------------------| |
B|--------------4--------------2-------------5-------5-4------5-4----| |
G|--------------4--------------2-------------6-----------4--------4--| |
D|-9v-----------4--------------2-------------6-------------4---------| |
A|----9-11------2--------------0-------------4-----------------------| |
E|-------------------------------------------------------------------| |

Segunda estrofa (Igual a la primera):

Se juntan a internetear conventillos los amigos de Judas...
Se opta mucho más por figurar que por tener decisión...
Se desbordó con certezas amargas el 'Gran mar de las dudas'...
Se puso más careta que un cura la cultura del rock...

Se ve que la escalera más sincera es la que va para abajo...
Se pone velo falso a todas las cosas, son como son...
Se fue perdiendo mucho mas en mi tierra que la paz y el trabajo...
Se repartieron más panfletos del cielo de la contradicción...

Estribillo

Cuando termina el estribillo:
Sé que no sé pero siempre, siempre opino igual... escribo sin escuchar...
si lo que hago yo mismo está bien o mal...
(La guitarra es igual a la Intro)

Interludio:

Es arpegiando sobre esas notas, haganlo como quieran.
E|----------------------------------------------12-12-12-12-12-12----| |
B|----------------------------------------------12-12-12-12----12----| |
G|-----------9---9----------------9---9------------------------------| |
D|--9------9---9---9-------9----9---9---9----------------------------| |
A|--11--11-----------11----11-11----------11-------------------------| |
E|-------------------------------------------------------------------| |

E|-12-12-12--12-12-12--12-12-12-12-12--------------------------------| |
B|-12-12-12--12-12-12--12-12-13-12-12--------------------------------| |
G|-13----13--13----13--13-13-13--------------------------------------| |
D|-------------------------------------------------------------------| |
A|-------------------------------------------------------------------| |
E|-------------------------------------------------------------------| |

Estribillo x2
Cuando termina la segunda vez, viene el solo:

E|-------------------------------------------------------------------| |
B|-------------------------------------------------------------------| |
G|---6-8-9--9v-9v-9-8-6--8--9-9------------------------9v--9--8-6----| |
D|-9----------------------------9v--6-7-9--9--7-6--------------------| |
A|------------------------------------------------7------------------| |
E|-------------------------------------------------------------------| |

E|-------------------------------------------------------------------| |
B|-------------------------------------------------------------------| |
G|-8--9----------9-11br-------------9v--9--8-6--8--9-9---8v----------| |
D|------9v--9-11--------11--14v--------------------------------------| |
A|-------------------------------------------------------------------| |
E|-------------------------------------------------------------------| |

E|-------------------------------------------------------------------| |
B|-------------------------------------------------------------------| |
G|-----------9-8-6--8v-----------------------------------------------| |
D|-7v-----7----------------------------------------------------------| |
A|-------------------------------------------------------------------| |
E|-------------------------------------------------------------------| |
00:00 / 00:00
Otros videos de esta canción
Repetir
Otros videos de esta canción
Composición de Callejeros
37 vistas
    • ½ Tono
    • A
    • Bb
    • B
    • C
    • Db
    • D
    • Eb
    • E
    • F
    • F#
    • G
    • Ab
  • Agregar a la lista

    0 comentarios

    Ver todos los comentarios

    ¿Lograste tocar?

    0 Tocaron 0 Aún no

    ¡Graba un video tocando Sé que no sé y envíanoslo!

    00:00 / 00:00
    OK