Cifra Club

Si queres que sea yo

Callejeros

Cifrado: Principal (guitarra y guitarra eléctrica)
tono: E
INTRO: E5 (7º TRASTE)

E|---------5--------5-------------------------------------|
B|--5b-5-8---5b-5-8----5b-5-4-----------------------------|
G|----------------------------7-5-4-4---------------------|
D|------------------------------------7-5---999-----------|
A|----------------------------------------5-777-----------|
E|--------------------------------------------------------|


E5
Abrazado a tu cintura

No me quedan muchas dudas

De lo que quiero hacer
A5
En Celina esta boca

Y la terrasa de la luna
      E5
y volver

EN EL ESTRIBILLO A  1º GUITARRA HACE:

  B5        A5          B5        A5           E5
E|---------------------------------------------------|
B|---------------------------------------------------|
G|------8v--------11v---------8v-------11v-11-8------|
D|-9-11-----9-11--------9-11------9-11----------11-9-|
A|---------------------------------------------------|
E|---------------------------------------------------|



ESTRIBILLO:

B5                            A5
porque en este laberinto sin vuelta
B5                             A5
puedo llegar a ser lo que vos quieras
                 E5
si queres que sea yo

INTER: E5-E5-E5-A5-A5-E5/B5-A5-B5-A5-E5


Tener causa en argentina
Es sin duda lo mas ruin que te puede pasar
Y si a eso le sumas la policia los bomberos
Funcionarios y banqueros que te puede quedar?

Sera por eso que el rock me alimenta
Sera por eso que toda esta farsa no lo pudo comprar!

INTER: E5-E5-E5-A5-A5-E5/B5-A5-B5-A5-E5

Por confiar en la confianza me robaron la musica la voz y la fe
y en una noche pordiosera por volver recupere 2 de 3

porque no mato ni violo ni estafo
hago rock que es lo que siento y lo unico que se hacer!

INTER: E5-E5-E5-A5-A5-E5/B5-A5-B5-A5-E5

Tener causa en argentina
Es sin duda lo mas ruin que te puede pasar
Y si a eso le sumas la policia los bomberos
Funcionarios y banqueros que te puede quedar?

Sera por eso que el rock me alimenta
Sera por eso que toda esta farsa no lo pudo comprar!

D PITE INTRO

INTER: E5-E5-E5-A5-A5-E5

B5                    A5
Sera por eso que el rock me alimenta
B5                    A5
tal vez yo pueda hacer lo que quieras
B5                     A5
tambien te puedo hacer lo que vos quieras
                  E5
si queres que sea yo
00:00 / 00:00
Otros videos de esta canción
Repetir
Otros videos de esta canción
Composición de Rogelio Santos
60 exhibiciones
    • ½ Tono
    • A
    • Bb
    • B
    • C
    • Db
    • D
    • Eb
    • E
    • F
    • F#
    • G
    • Ab
  • Agregar a la lista
    00:00 / 00:00
    OK