Cifra Club

Tiempo de Estar

Callejeros

Tablatura: Principal (guitarra)
Tom: C
Intro: 
                                        (A5-F5-G5-A5)x2 
e|-------------------------------------------|---------------------------------------------| 
B|-------------------------------------------|---------------------------------------------| 
G|-9v-9v--------------------------10-9-------|--9v-9v-9v-9/12-10--12-10-9------------------| 
D|-------12-10-9-7--7-9-10-10/12-------12-10-|----------------------------12-10-9-7--------| 
A|-------------------------------------------|---------------------------------------------| 
E|-------------------------------------------|---------------------------------------------| 

------------------------------------------------------------------------------------------------------ 
Verso:  (A5 F5 G5 A5)x2 
   
e|------------------------------(3)-------------|-----(5)-----------------------------| 
B|--------------------------------(3)-----------|-------(5)---------------------------| 
G|----------------------------------------------|-------------------------------------| 
D|-7--7--7--7---3--3--(3)--5-5---------7-7--7-7-|-(7)--------3-3-(3)--5-5-5-5--7-(7)--| 
A|-7--7--7--7---3--3--(3)--5-5---------7-7--7-7-|-(7)--------3-3-(3)--5-5-5-5--7-(7)--| 
E|-5-----5------1-----(1)--3-3---------5-5--5-5-|-(5)--------1-1-(1)--3-3-3-3--5-(5)--| 

Am                        F 
Tanta hiena riendo a carcajadas 
  G                          Am 
predando nuestra gran felicidad 
 Am                            F 
Tanta trampa, tanto golpe mal dado 
 G                             Am 
Tantos miedos, ni una oportunidad. 
------------------------------------------------------------------------------------------------------- 
ESTRIBILLO: 

        Am               G                  E                F 
e|--------------------------------------|---------------------| 
B|--------------------------------------|---------------------| 
G|--------------------------------------|---------------------| 
D|--------7b--------7b------5b------5b--|--(2)-----------3-3--| 
A|--------------------------------------|--(2)-/7-5-3-2--3-3--| 
E|-5x5x5x---5x5x5x5x---3x3x3--3x3x3x----|--(0)-----------1-1--| 


        Am               G                  E            Am 
e|--------------------------------------|---------------------| 
B|--------------------------------------|---------------------| 
G|--------------------------------------|---------------(2)---| 
D|--------7b--------7b------5b------5b--|--(2)----------(2)---| 
A|--------------------------------------|--(2)-/7-5-3-2-(0)---| 
E|-5x5x5x---5x5x5x5x---3x3x3--3x3x3x----|--(0)----------------| 

             E       F      G      A 
e|--------------------------------------| 
B|--------------------------------------| 
G|--------------------------------------| 
D|----------2-2-2---3-3-3--5-5-5--7-7-7-| 
A|-5-3-2-0--2-2-2---3-3-3--5-5-5--7-7-7-| 
E|----------0-0-0---1-1-1--3-3-3--5-5-5-| 

e|------------------|------------------|-----------------------------------| 
B|------------------|------------------|-----------------------------------| 
G|------------------|------------------|-----------------------------------| 
D|-9v-12-10-9-(10v)-|-10-10/14-10/(12)-|--------------9-9/12-10-9-7-(9)----| 
A|------------------|------------------|-10-10-12-12-----------------------| 
E|------------------|------------------|-----------------------------------| 

    E       F       G      A  
e|-----------------------------| 
B|-----------------------------| 
G|-----------------------------| 
D|-2-2-2---3-3-3--5-5-5--7-7-7-| 
A|-2-2-2---3-3-3--5-5-5--7-7-7-| 
E|-0-0-0---1-1-1--3-3-3--5-5-5-| 

e|--------------------------|----------|--------------| 
B|--------------------------|----------|--------------| 
G|--------------------------|----------|--------------| 
D|-9v-12-10-9-(10v)-10/12-10|-10-10/14-|--------------| 
A|--------------------------|----------|-10-10-12-12--| 
E|--------------------------|----------|--------------| 

  Am                            G 
Que al suburbio rodando con hermanos 
  Em                               F 
siento por ciento mi tiempo de estar 
  Am                            G 
Que al suburbio rodando con hermanos 
  Em                               Am 
siento por ciento mi tiempo de estar ah ah ah 
  Em                               F 
siento por ciento mi tiempo de estar 
                  G                    Am 
en paz, de ver algún sol más, de imaginar 
  Em                               F 
siento por ciento mi tiempo de estar 
                  G                    Am 
en paz, de ver algún sol más, de imaginar. 
------------------------------------------------------------------------------------------------------- 

Verso: 

 Am                           F 
Tanta jaula por bardearla inocente 
 G                          Am 
Tanta libre farra presidencial 
 Am                              F 
Tantas cruces, tanto tiempo asustados 
      G                    Am 
(Asustados no se puede pelear) 

------------------------------------------------------------------------------------------------------- 
ESTRIBILLO 

  Am                            G 
Que al suburbio rodando con hermanos 
  E                               F 
siento por ciento mi tiempo de estar 
  Am                            G 
Que al suburbio rodando con hermanos 
  E                               Am 
siento por ciento mi tiempo de estar ah ah ah 
  E                               F 
siento por ciento mi tiempo de estar 
                  G                    Am 
en paz, de ver algún sol más, de imaginar 
  E                               F 
siento por ciento mi tiempo de estar 
                  G                    Am 
en paz, de ver algún sol más, de imaginar. 

------------------------------------------------------------------------------------------------------- 
 SOLO ( Am-F-G-Am)x2 ( Am-F-G-Am ) x1 {alarga los tiempos} 

e|----------------------------------------|--------------------------------------10b--10/13-12-10-------- 
B|----------------------------------------|------------------1010101010--10-12-13-----------------13-(10) 
G|----7/9-9-9/(12)-(10)---14141414-12-10-9|----7/999--9-10-12-------------------------------------------- 
D|7-9-------------------------------------|7-9----------------------------------------------------------- 
A|----------------------------------------|-------------------------------------------------------------- 
E|----------------------------------------|-------------------------------------------------------------- 

e|12-10---------12-10----------13-12-10--------13-12-10----------10--------------10-8-7-10-8-7-10-8/12--13b-12b 
B|-----13-12-10-------13-12-10---------13-12-10---------13-12-10----13-12-10-(8)------------------------------| 
G|------------------------------------------------------------------------------------------------------------| 
D|------------------------------------------------------------------------------------------------------------| 
A|------------------------------------------------------------------------------------------------------------| 
E|------------------------------------------------------------------------------------------------------------| 

------------------------------------------------------------------------------------------------------- 

     C       A       F      A       C        A         F                 G 
e|-----------------------------------------------------------------------------------------| 
B|-----------------------------------------------------------------------------------------| 
G|--5-5-5---------------------------5-5-5--------------------------------------------------| 
D|--5-5-5---7-7-7---3-3-3--7-7-7----5-5-5---7-7-7------------------------------------------| 
A|--3-3-3---7-7-7---3-3-3--7-7-7----3-3-3---7-7-7------------------------------------------| 
E|----------5-5-5---1-1-1--5-5-5------------5-5-5--1x1x1x1x1x1x1x1x1x3x3x3x3x3xx3x3x3x3x3x-| 
  C                            Am 
Ni un millón de giras dan el dolor 
  F                           Am 
que te queda por no poder actuar 
 C                             Am 
yo sé que algún día vas a ser vos 
F                          G 
el que diga paro para empezar 

------------------------------------------------------------------------------------------------------- 
ESTRIBILLO 

  Am                            G 
Que al suburbio rodando con hermanos 
  Em                               F 
siento por ciento mi tiempo de estar 
  Am                            G 
Que al suburbio rodando con hermanos 
  Em                               Am 
siento por ciento mi tiempo de estar ah ah ah 
  Em                               F 
siento por ciento mi tiempo de estar 
                  G                    Am 
en paz, de ver algún sol más, de imaginar 
  Em                               F 
siento por ciento mi tiempo de estar 
                  G                    Am 
en paz, de ver algún sol más, de imaginar. 

------------------------------------------------------------------------------------------------------- 
FINAL: 

e|----------------------------------------------------------------------------------------| 
B|----------------------------------------------------------------------------------------| 
D|----------------------------------------------------------------------------------------| 
G|-------------------------------------------------------------------------------7-7-7----| 
A|-------------------------------------------------------------------------------7-7-7----| 
E|-0-0/8-5-5/8-0-0/8-8-88---5-5/8--1x1x1x1x1x1x1x1x1x1x-3x3x3x3x3x3x3x3x3x3x3x3--5-5-5----| 

´ El Ghetto Del Rey ´ rnr
reproducciones 323
Acordes para:
    Composição: Callejeros Colaboración y revision:
    • evandro gomes

    0 comentarios

    mostrar más comentarios

    ¿Conseguiste tocar?

    0 tocaron 0 aún no

    ¡Graba un vídeo tocando Tiempo de Estar y envianoslo!

    00:00 / 00:00
    outros vídeos desta música
    repetir qualidade Automático
    Outros vídeos desta música
    00:00 / 00:00
    Automático
    OK