Cifra Club

Todo eso

Callejeros

Cifrado: Principal (guitarra y guitarra eléctrica)
tono: Db
Intro

    F#     Fm    D#m     F#         G#
E|-------------------------------------6p4-------|
B|-----7-7----6-6----4-4-2--2-1-2-4-1------7-7---|
G|-----------------------------------------------|
D|--s7-----s6-----s4-----------------------------|
A|-----------------------------------------------|
E|-----------------------------------------------|

Solo
Base: C# - G# - F# - C#
      C# - G# - F# - G#

E|--------------------------------------------------|
B|--------------------------------------------------|
G|--------------8--8----6---6b--6-------------------|
D|----6---6---6---6---------------------------------|
A|--4---4---------------------------6--8-6h8p6---4--|
E|--------------------------------------------------|

E|-------------------------------------------------------|
B|-------------------------------------------------------|
G|-------------------------------------------------------|
D|-------3--6---------3--6-------------------------------|
A|--4--6------4--4--6--------------3--6---------3--6---4-|
E|-------------------------4--4--6------4--4--6----------|

E|--------------------------------------------------------|
B|---------------11-9-------11-9-------9--9h11-9----------|
G|--------10--11------11-10------11-10-----------10-8-----|
D|--11-13---------------------------------------------11--|
A|--------------------------------------------------------|
E|--------------------------------------------------------|
00:00 / 00:00
Otros videos de esta canción
Repetir
Otros videos de esta canción
Composición de Callejeros
35 vistas
    • ½ Tono
    • A
    • Bb
    • B
    • C
    • Db
    • D
    • Eb
    • E
    • F
    • F#
    • G
    • Ab
  • Agregar a la lista

    0 comentarios

    Ver todos los comentarios

    ¿Lograste tocar?

    0 Tocaron 0 Aún no

    ¡Graba un video tocando Todo eso y envíanoslo!

    00:00 / 00:00
    OK