Cifra Club

Tratando de olvidar

Callejeros

Cifrado: Principal (guitarra y guitarra eléctrica)
tono: F#m
Intro:

E|-9~~-9p7----7-9-----|------------------|---9-7------9-7------9~~-|
B|---------10-----7~/-|-7-10-7-10-7-10-7-|-7-----10-7-----10-7-----|
G|--------------------|------------------|-------------------------|
D|--------------------|------------------|-------------------------|
A|--------------------|------------------|-------------------------|
E|--------------------|------------------|-------------------------|

E|-9~~-9p7----7-9-----|------------------|---9-7------9-7-------------|
B|---------10-----7~/-|-7-10-7-10-7-10-7-|-7-----10-7-----10-7-10~~~~~|
G|--------------------|------------------|----------------------------|
D|--------------------|------------------|----------------------------|
A|--------------------|------------------|----------------------------|
E|--------------------|------------------|----------------------------|


A                    F#m
Voy caminando bajo una luna azul
       Bm                                   E
Y las estrellas que desacansan sobre el mar.
A                      F#m
Me fui de casa, estoy en otro lugar,
          Bm                       E
en la cornisa de una falsa soledad.
          A    F#m
A lo lejos, esta saliendo el sol
           Bm                   E
Y veo tu cara junto a todo el amanecer.
  A
Nena, no hay nada
           F#m
Que me pueda hacerte olvidar.
       Bm             E
Me robaste el corazón

Dm
Estoy tan lejos
   A
Tratando de olvidar,
Dm
Tomando vino
     Bm
Y fumando frente al mar.
Dm
No tiene cura
       A
Esta gran enfermedad.
B
Estoy tan lejos
     E
tratando de olvidar.


Que nos conocimos en San Telmo,
En el viejo Museo Rock;
Donde todo se hacia
Como por primera vez

Fue en el baño
Donde vos me hiciste arder
Desde el tabique
Hasta la punta de los pies.

Nos amamos, pero pronto se acabo
Como se acaban las cosas
Que te hunden al dolor.

Nena, no hay nada
Que me pueda hacerte olvidar
Me arruinaste el corazón.

Estoy tan lejos
Tratando de olvidar,
Tomando vino
Y fumando frente al mar.
No tiene cura
Esta gran enfermedad.
Estoy tan lejos
tratando de olvidar.

Solo:

E|------------|-----9-----9-----9-----9-|
B|-10~~----10-|-12b---12b---12b---12b---|
G|------11----|-------------------------|
D|------------|-------------------------|
A|------------|-------------------------|
E|------------|-------------------------|

E|-14-12------------------|-----9-----------------|
B|-------14-12br-10----10-|-12b---12r-10----10~~~-|
G|------------------11----|--------------11-------|
D|------------------------|-----------------------|
A|------------------------|-----------------------|
E|------------------------|-----------------------|

E|----------------------|----------|-----9-----9------------|
B|----10-12br-10----10~-|-10----10-|-12b---12b---12br-10-12-|
G|-11------------11-----|----11----|------------------------|
D|----------------------|----------|------------------------|
A|----------------------|----------|------------------------|
E|----------------------|----------|------------------------|

E|----9-------------|
B|-12b--12r--10~~~/-|
G|------------------|
D|------------------|
A|------------------|
E|------------------|
Estoy tan lejos
Tratando de olvidar,
Tomando vino
Y fumando frente al mar.
No tiene cura
Esta gran enfermedad.
Estoy tan lejos
tratando de olvidar.


Final:

E|-9~~-9p7----7-9-----|------------------|---9-7------9-7------9~~-|
B|---------10-----7~/-|-7-10-7-10-7-10-7-|-7-----10-7-----10-7-----|
G|--------------------|------------------|-------------------------|
D|--------------------|------------------|-------------------------|
A|--------------------|------------------|-------------------------|
E|--------------------|------------------|-------------------------|

E|-9~~-9p7----7-9-----|------------------|
B|---------10-----7~/-|-7-10-7-10-7-10-7-|
G|--------------------|------------------|
D|--------------------|------------------|
A|--------------------|------------------|
E|--------------------|------------------|

E|---9-7----------------------------|
B|-7-----10-7-5---5-7-10~~~~~~-10~/-|
G|--------------6-------------------|
D|----------------------------------|
A|----------------------------------|
E|----------------------------------|
Fin

p= Pull Off - Ligado Descendente
/= Slide - Arrastre
b= Bend - Estirada
br= Bend and Return - Estirar y Volver
~= Vibrato
00:00 / 00:00
Otros videos de esta canción
Repetir
Otros videos de esta canción
Composición de Callejeros
139 vistas
    • ½ Tono
    • Am
    • Bbm
    • Bm
    • Cm
    • C#m
    • Dm
    • Ebm
    • Em
    • Fm
    • F#m
    • Gm
    • G#m
  • Agregar a la lista

    0 comentarios

    Ver todos los comentarios

    ¿Lograste tocar?

    0 Tocaron 0 Aún no

    ¡Graba un video tocando Tratando de olvidar y envíanoslo!

    00:00 / 00:00
    OK