Cifra Club

Tres

Callejeros

Cifrado: Principal (guitarra y guitarra eléctrica)
tono: Gm
E|-6-6-6-------|-6-6-6-------|-11-11-10-8/-11-11-10-8-|-6-6-6-------|-6-6-6-------|
B|-6-6-6-----7-|-6-6-6-----7-|-11-11-10-8/-11-11-10-8-|-6-6-6-----7-|-6-6-6-----7-|
G|-------7-8---|-------7-8---|------------------------|-------7-8---|-------7-8---|
D|-------------|-------------|------------------------|-------------|-------------|
A|-------------|-------------|------------------------|-------------|-------------|
E|-------------|-------------|------------------------|-------------|-------------|

E|-11-11-10-8-|-6/8--6/8-----|------6-6-6-6-|------6-6-6-6-|-----6-----6-----6-----6-----6-|
B|-11-11-10-8-|-6/8--6/8-(6)-|-----6-6-6-6--|-----6-6-6-6--|-6h8---6h8---6h8---6h8---6h8---|
G|------------|--------------|-(8)----------|-(8)----------|-------------------------------|
D|------------|--------------|--------------|--------------|-------------------------------|
A|------------|--------------|--------------|--------------|-------------------------------|
E|------------|--------------|--------------|--------------|-------------------------------|

E|-6/8-8-6-8-8-|-----6-8-8-6---6-6~-|--------------------|-----6-8-8-6---6-6~-|-----------6~~-|
B|-------------|-6-8---------8------|-----6-(6)-6-8-6-6~-|-6-8---------8------|-----6-6-8-----|
G|-------------|--------------------|-5/7----------------|--------------------|-5/7-----------|
D|-------------|--------------------|--------------------|--------------------|---------------|
A|-------------|--------------------|--------------------|--------------------|---------------|
E|-------------|--------------------|--------------------|--------------------|---------------|
00:00 / 00:00
Otros videos de esta canción
Repetir
Otros videos de esta canción
Composición de R.santos/m.djerfy
58 vistas
    • ½ Tono
    • Am
    • Bbm
    • Bm
    • Cm
    • C#m
    • Dm
    • Ebm
    • Em
    • Fm
    • F#m
    • Gm
    • G#m
  • Agregar a la lista

    0 comentarios

    Ver todos los comentarios
    00:00 / 00:00
    OK