Cifra Club

You Are The Reason

Calum Scott

Cifrado: Principal (guitarra y guitarra eléctrica)
tono: C (con acordes en la forma de A) Capotraste en 3ª casa
[Intro] G  Em7  Cadd9  D  G

   G                           Em7
E|-------------|-------------|-------------|-------------|
B|-------------|-------------|-------------|-------------|
G|-0-----0-----|-0-----0-----|-0-----0-----|-0-----0-----|
D|---0-0---0-0-|---0-0---0-0-|---0-0---0-0-|---0-0---0-0-|
A|-------------|-------------|-------------|-------------|
E|-3-----------|-------------|-0-----------|-------------|

   Cadd9         D             G
E|-------------|-------------|-------------|-------------|
B|-------------|-------------|-------------|-------------|
G|-0-----0-----|-------------|-0-----0-----|-0-----0-----|
D|---0-0---0-0-|-4-----4-----|---0-0---0-0-|---0-0---0-0-|
A|-3-----------|-5-5-5---5-5-|-------------|-------------|
E|-------------|-------------|-3-----------|-------------|

[Primeira Parte]

              G
There goes my heart beating
                  Em7
Cause you are the reason
              Cadd9     D
I'm losing my sleep
                 G
Please come back now
              G
There goes my mind racing
                Em7
And you are the reason
               Cadd9       D
That I'm still breathing
             G    
I'm hopeless now


[Refrão]

E|-------------|-------------|-------------|-------------|
B|-------------|-------------|-------------|-------------|
G|-0-----0-----|-------------|-0-----0-----|-0-----0-----|
D|---0-0---0-0-|-4-----4-----|---0-0---0-0-|---0-0---0-0-|
A|-3-----------|-5-5-5---5-5-|-------------|-------2-----|
E|-------------|-------------|-0-----------|-------------|

   Cadd9         D             G             D
E|-------------|-------------|-------------|-2-----------|
B|-------------|-------------|-------------|-3-----------|
G|-0-----0-----|-------------|-0-----0-----|-2-----------|
D|---0-0---0-0-|-4-----4-----|---0-0---0-0-|-0-----------|
A|-3-----------|-5-5-5---5-5-|-------------|-------------|
E|-------------|-------------|-3-----------|-------------|

   Em7   D/F#    G     G/B     C             Cm
E|-------------|-------------|-------------|-3-----------|
B|-------------|-0-----3-----|-5-----------|-4-----------|
G|-0-----2-----|-------------|-------------|-5-----------|
D|-------------|-------------|-------------|-5-----------|
A|-------------|-------2-----|-3-----------|-3-----------|
E|-0-----2-----|-3-----------|-------------|-------------|

    G/B         Cadd9        D
I'd climb every mountain
               Em7
And swim every ocean
           Cadd9      D
Just to be with you
                  G       D
And fix what I've broken
          Em7 D/F#  G      C      Cm
Oh, cause I   need you to see
                 G
That you are the reason



[Segunda Parte]

   G                           Em7
E|-------------|-------------|-------------|-------------|
B|-------------|-------------|-------------|-------------|
G|-0-----0-----|-0-----0-----|-0-----0-----|-0-----0-----|
D|---0-0---0-0-|---0-0---0-0-|---0-0---0-0-|---0-0---0-0-|
A|-------------|-------------|-------------|-------------|
E|-3-----------|-------------|-0-----------|-------------|

   Cadd9         D             G
E|-------------|-------------|-------------|-------------|
B|-------------|-------------|-------------|-------------|
G|-0-----0-----|-------------|-0-----0-----|-0-----0-----|
D|---0-0---0-0-|-4-----4-----|---0-0---0-0-|---0-0---0-0-|
A|-3-----------|-5-5-5---5-5-|-------------|-------------|
E|-------------|-------------|-3-----------|-------------|

              G
There goes my hands shaking
                Em7
And you are the reason
               Cadd9       D
My heart keeps bleeding
           G
I need you now
           G
If I could turn back the clock
                  Em7
I'd make sure the light defeated the dark
                Cadd9          D
I'd spend every hour, of every day
            G
Keeping you safe

[Refrão]

E|-------------|-------------|-------------|-------------|
B|-------------|-------------|-------------|-------------|
G|-0-----0-----|-------------|-0-----0-----|-0-----0-----|
D|---0-0---0-0-|-4-----4-----|---0-0---0-0-|---0-0---0-0-|
A|-3-----------|-5-5-5---5-5-|-------------|-------2-----|
E|-------------|-------------|-0-----------|-------------|

   Cadd9         D             G             D
E|-------------|-------------|-------------|-2-----------|
B|-------------|-------------|-------------|-3-----------|
G|-0-----0-----|-------------|-0-----0-----|-2-----------|
D|---0-0---0-0-|-4-----4-----|---0-0---0-0-|-0-----------|
A|-3-----------|-5-5-5---5-5-|-------------|-------------|
E|-------------|-------------|-3-----------|-------------|

   Em7   D/F#    G     G/B     C             Cm
E|-------------|-------------|-------------|-3-----------|
B|-------------|-0-----3-----|-5-----------|-4-----------|
G|-0-----2-----|-------------|-------------|-5-----------|
D|-------------|-------------|-------------|-5-----------|
A|-------------|-------2-----|-3-----------|-3-----------|
E|-0-----2-----|-3-----------|-------------|-------------|

    G/B          Cadd9    D
I'd climb every mountain
               Em7
And swim every ocean
           Cadd9      D
Just to be with you
                  G       D
And fix what I've broken
          Em7 D/F#  G      C      Cm
Oh, cause I   need you to see


E|-------------|-------------|-------------|-------------|
B|-------------|-------------|-------------|-------------|
G|-0-----0-----|-------------|-0-----2-----|-0-----0-----|
D|---0-0---0-0-|-4-----4-----|---0-0---0-0-|---0-0---0-0-| x2
A|-3-----------|-5-5-5---5-5-|-------------|-------2-----|
E|-------------|-------------|-0-----2-----|-3-----------|
 
   Cadd9         D            
E|-------------|-2-----------|-------------|-------------|
B|-------------|-3-----------|-------------|-------------|
G|-0-----0-----|-2-----------|-------------|-------------|
D|---0-0---0-0-|-0-----------|-------------|-------------|
A|-3-----3-----|-------------|-------------|-------------|
E|-------------|-------------|-------------|-------------|

                Cadd9    D      Em7  D/F#   G/B
That you are the reason
            C         D      Em7  D/F#   
You are the reason
  G/B                 C          D
I need you to hold me tonight



[Final]

                C        D
I'd climb every mountain
               Em
And swim every ocean
           C        D
Just to be with you
                  G        D
And fix what I've broken
      Em  D/F#  G      C   Cm
Cause I   need you to  see
                 G
That you are the reason
Composición de Calum Scott / Corey Sanders / Jon Maguire
10.320 vistas
  • Simplificar cifrado
    • ½ Tono
    • A
    • Bb
    • B
    • C
    • Db
    • D
    • Eb
    • E
    • F
    • F#
    • G
    • Ab
  • Agregar a la lista

    0 comentarios

    Ver todos los comentarios

    ¿Lograste tocar?

    16 Tocaron 7 Aún no

    ¡Graba un video tocando You Are The Reason y envíanoslo!

    00:00 / 00:00
    Outros vídeos desta música
    Repetir Calidad Automático
    Outros vídeos desta música
    00:00 / 00:00
    Automático
    OK