Cifra Club

Palabras de papel

Camela

Cifrado: Principal (guitarra y guitarra eléctrica)
tono: Eb
1*     Eb              Cm                Ab  

E|--2--0-2-2--0-0-2-3-3-2---0-2-3-2--0-2-9-9-9h7-7-7h5-5-5h3-3-3-2--|
B|--3-3--3-3-3-3----------3-3-------3-------------------------------|
G|-----2----------------4---------4---------------------------------|
D|----------------------------4-------------------------------------|
A|------------------------------------------------------------------|
E|------------------------------------------------------------------|

2*           Bb 

E|-9-9-9h7-7-7h5h3-3-3-2--0-2h3-----|
B|----------------------------------|
G|----------------------------------|
D|----------------------------------|
A|----------------------------------|
E|----------------------------------|

3*

E|----------------------3h5--3-3h2h0-0-0----5-3-3-2-3-5-3-5-3---|
B|---3-3-5-5-7-8-7h8-7-------------------3-2--------------------|
G|--2-----------------------------------------------------------|

4*

E|---2-2-------------|
B|--5-5-4h5-3-2-0----|
G|---------------h2--|
Compositor não encontrado.
2 vistas
    • ½ Tono
    • A
    • Bb
    • B
    • C
    • Db
    • D
    • Eb
    • E
    • F
    • F#
    • G
    • Ab
  • Agregar a la lista

    0 comentarios

    Ver todos los comentarios

    ¿Lograste tocar?

    0 Tocaron 0 Aún no

    ¡Graba un video tocando Palabras de papel y envíanoslo!

    00:00 / 00:00
    Outros vídeos desta música
    Repetir Calidad Automático
    Outros vídeos desta música
    00:00 / 00:00
    Automático
    OK