Cifra Club

Tu mamá te mató

Camila Moreno

Cifrado: Principal (guitarra y guitarra eléctrica)
tono: Em

Versión estudio:
C5                   D5                 E5
E|------------------|------------------|------------------------------------|
B|----5---5---5---5-|----7---7---7---7-|---8---8---8---8---10---10---10---10|
G|--5---5---5---5---|--7---7---7---7---|-9---9---9---9---9----9----9----9---|
D|------------------|------------------|------------------------------------|
A|------------------|------------------|------------------------------------|
E|------------------|------------------|------------------------------------|
                                                                         (x2)

Versión acústica:

C5                   D5                E5
E|------------------|----------------|------------------------------|
B|------------------|----------------|------------------------------|
G|------------------|----------------|-----------------7------7-----| (X2)
D|----5---5---5---5-|--7---7---7---7-|--9----9----9------9-----9----|
A|--3---3---3---3---| 5---5---5---5---|7----7----7---7------7-----7--|
E|------------------|----------------|------------------------------|

Durante la primera estrofa se repite el arpegio.

C5               D5
No sé cómo pude estar
E5
intentando ser otra cosa.
C5                D5
No sé cómo pude pedir
E5
un poco de amor suplicando.
C5                  D5
Voy a empezar a soltarte,
E5
voy a empezar a bailar.
C5                 D5
Voy a dejar de buscarte,
E5
voy a empezar a bailar.


Coro:

            C5    D5    E5
Tu mamá te mató y yo lloraba.
                   C5       D5    E5
Con su piel te incendió. Estás ardiendo.
                      C5       D5     E5
Este no es el sueño de Dios, dijo temblando.
                    C5           D5      G5
Enciéndanme toda la luz, que el sol se apaga.


Interludio
  A                 F#                 B                   G
E|-x---x---x--x--x--|-x--x-x--x--x-x---|-x---x--x--x---x--|-x--x-x--x--x-x--|
B|-x---x---x--x--x--|-x--x-x--x--x-x---|-x---x--x--x---x--|-x--x-x--x--x-x--|
G|-x---x---x--x--x--|-x--x-x--x--x-x---|-x---x--x--x---x--|-x--x-x--x--x-x--|
D|-x---x---x--x--x--|-x--x-x--x--x-x---|-x---x--x--x---x--|-x--x-x--x--x-x--|
A|-x---x---x--x--x--|-x--x-x--x--x-x---|-x---x--x--x---x--|-x--x-x--x--x-x--|
E|-5---5---5--5--5--|-2--2-2--2--2-2---|-7---7--7--7---7--|-3--3-3--3--3-3--|
                                                                         (x2)

Verso 2:

  C/A                D/F#               E/B                 E/G
E|------------------|------------------|-------------------|-----------------|
B|------------------|------------------|-------------------|-----------------|
G|------------------|------------------|-------------------|-----------------|
D|------------------|------------------|-------------------|-----------------|
A|-3---3---3--3--3--|-5--5-5---5--5-5--|-7---7---7--7---7--|-7--7-7---7--7-7-|
E|-5---5---5--5--5--|-2--2-2---2--2-2--|-7---7---7--7---7--|-3--3-3---3--3-3-|

C/A                D/F#
En el amor y en el crimen,
E/B                  E/G
las cosas se mueven igual
C/A              D/F#
Tú que siempre dijiste,
E/B                 E/G
esto no puede acabar
C/A              D/F#
Yo que tengo un cuchillo
E/B                 E/G
te voy a sacar a bailar


Coro:

C/A                   D/F#               E/B                 E/G
E|------------------|-------------------|-------------------|-----------------|
B|------------------|-------------------|-------------------|-----------------|
G|------------------|-------------------|-------------------|-----------------|
D|------------------|-------------------|-------------------|-----------------|
A|-10--10--10-10--10|--5--5-5---5--5-5--|-7---7---7--7---7--|-7--7-7---7--7-7-|
E|-8---8---8--8---8-|--2--2-2---2--2-2--|-7---7---7--7---7--|-3--3-3---3--3-3-|


            C/A   D/F    E/B   E/G
Tu mamá te mató y yo lloraba.
                   C/A    D/F    E/B    E/G
Con su piel te incendió. Estás ardiendo.
                       C/A    D/F    E/B    E/G
Este no es el sueño de Dios, dijo temblando.
                    C/A         D/F      G
Enciéndanme toda la luz, que el sol se apaga.

            C     D    Em
Tu mamá te mató y yo lloraba.
                     C     D    Em
Con su piel te incendió. Estás ardiendo.
                        C     D    Em
Este no es el sueño de Dios, dijo temblando.
                      C          D       G
Enciéndanme toda la luz, que el sol se apaga.
00:00 / 00:00
Otros videos de esta canción
Repetir
Otros videos de esta canción
Composición de Camila Moreno
35 vistas
    • ½ Tono
    • Am
    • Bbm
    • Bm
    • Cm
    • C#m
    • Dm
    • Ebm
    • Em
    • Fm
    • F#m
    • Gm
    • G#m
  • Agregar a la lista

    0 comentarios

    Ver todos los comentarios

    ¿Lograste tocar?

    0 Tocaron 0 Aún no

    ¡Graba un video tocando Tu mamá te mató y envíanoslo!

    00:00 / 00:00
    OK