Cifra Club

Aprenda

Es De Verdad

Camila

Tablatura: Principal (guitarra)
tono: G
By: Edgar20393

a la de "solo para ti" espero y les guste...

Esta rola esta especialmente dedicada para ALEJANRA DIAZ "YA NO TENGO KORAZON NI OJOS 
NADIE ....SOLO PARA TI":)

Em             D                  Cadd9
Eres lo que pedia, pues mi alma vacia
                  G
Te esperaba solo a ti
Em                    D                     Cadd9
Eres el amor que esperaba, lo unico que faltaba
             G
Para ser feliz
    Em                  D                         Cadd9
e-----------------------2---|---------------------------|
B---0--------------------3--|----------------------1----|
G----0-----------------2----|-----------------------0---|
D--2------------------0-----|---------------------0-----|
A-2-------------------------|--------------------3------|
E---------------------------|---------------------------|
 Eres todo lo que pedia       lo que mi alma vacia
              G     Em                      D
e----------------|--------------------------2---|
B----------------|---0-----------------------3--|
G-------------0--|----0--------------------2----|
D--------------0-|--2---------------------0-----|
A------------2---|-2----------------------------|
E-----------3----|------------------------------|
 Queria sentir    Eres lo que tanto esperaba
                       Cadd9                      G
e---------------------------|------------------------|
B------------------------1--|------------------------|
G-------------------------0-|---------------------0--|
D-----------------------0---|----------------------0-|
A----------------------3----|--------------------2---|
E---------------------------|-------------------3----|
 Lo que en sueños buscaba     y que en ti descubri
          Am                   D                         Em
e---------0---------------------2--|-------------------------|
B----------1---------------------3-|----------------------0--|
G-2h4----2---------------------2---|-----------------------0-|
D-------2---------------------0----|---------------------2---|
A----------------------------------|--------------------2----|
E----------------------------------|-------------------------|
       Tu has llegado a encender     cada parte de mi alma
             D          Cadd9                   Am
e-----------2----------------|--------------------0---|
B------------3----------1----|---------------------1--|
D----------2-------------0---|------------------2-----|
G---------0------------0-----|-----------------2------|
A---------------------3------|------------------------|
E----------------------------|------------------------|
 Cada espacio de mi ser       ya no tengo corazon
                   D
e------------------2---|------------------|
B-------------------3--|-------------1----|
G-----------------2----|--------------0---|
D----------------0-----|------------0-----|
A----------------------|-----------3------|
E----------------------|------------------|
 Ni ojos para nadie      solo para ti

 Em7                 D                   Cadd9
Eres el amor de mi vida, el destino lo sabia
                    G
Y hoy te puso ante mi.
 Em7                      D                             Cadd9
Y cada vez que miro al pasado, es que entiendo que a tu lado
               G
Siempre perteneci.

 Am                   D                     Em7
Tu has llegado a encender cada parte de mi alma
         D           Cadd9
Cada espacio de mi ser.
                 Am          D
Ya no tengo corazon, ni ojos para nadie
           Cadd9            Em7              Cadd9           Em7
Solo para ti.....Solo para ti.....Solo para ti.....Solo para ti

Cadd9               G
Esto es de verdad, lo puedo sentir
Cadd9                     D
Se que mi lugar es junto a ti
            Cadd9 Em7 Cadd9 G
Es junto a ti
G                  D
Eres todo lo que pedia
              Cadd9
Lo que no conocia

Y que en ti descubri....

Alguna Duda o comentario ya saben
*
176 reproducciones
    • ½ Tono
    • A
    • Bb
    • B
    • C
    • Db
    • D
    • Eb
    • E
    • F
    • F#
    • G
    • Ab
  • Adicionar à lista

    0 comentarios

    Ver todos os comentários

    ¿Conseguiste tocar?

    0 Tocaram 0 Ainda não

    Grave um vídeo tocando Es De Verdad e nos envie!

    00:00 / 00:00
    outros vídeos desta música
    repetir qualidade Automático
    Outros vídeos desta música
    00:00 / 00:00
    Automático
    OK