Cifra Club

Aprenda

Todo Cambio

Camila

Tablatura: Principal (guitarra)
tono: F (con acordes en la forma de E) Capotraste na 1ª casa
Intro:
E|-------------------------------------------------------------|
B|-------------------------------------------------------------|
G|----------------------------06h08-08-06v~---08/10/08--06h08--|
D|-------06-06h08-------06h08--~-------------------------------|
A|-06/08----------07/08----------------------------------------|
E|-------------------------------------------------------------|

E|--------------------------------------------------------------|
B|-------------------------09h11-09-----------------------------|
G|-------06h08-08-06-08/10-----------08h06-08--06----06-06h08---|
D|-06h08------------------------------------------08---------07-|
A|--------------------------------------------------------------|
E|--------------------------------------------------------------|

E      E7              A  Am6
Todo cambió, cuando te ví
E                     E7        A    Am6
de blanco y negro a color, me convertí
         F#m7                Abm
y fue tán fácil, quererte tanto,
 A           Abm
algo que no imaginaba,

 A                 B                  A
fue entregarte mi amor con una mirada


E      E7                     A   Am6
Todo tembló, dentro de mi
E                  E7              A    Am6
el universo escribió, que fueras para mi
      F#m7                     Abm
y fué tan fácil quererte tanto
A            Abm
algo que no imaginaba

F#m7             Abm
fue perderme (en tu amor)
              A
simplemente (pasó)
              Bsus
y todo tuyo ya soy.

           A                B9
Antes que pase más tiempo contigo amor
             E                       E7
tengo que decir que eres el amor de mi vida,
            A                 B9
antes que te ame más, escucha por favor
          E              A
dejame decir que todo te dí.

   F#m7
Y no hay, (como explicar)
        Abm
pero menos, (dudar)
        A             Bsus
simplemente así lo sentí
             A
cuando te ví.

E         E7         A   Am6
Me sorprendió todo de tí
E                     E7           A  Am6
de blanco y negro al color, me converti
               F#m7              Abm
sé que no es fácil, decir te amo
A                 Abm
yo tampoco lo esperaba
F#m7              Abm
pero así es el amoR
              A                  Bsus
simplemente (paso) y todo tuyo ya soy

           A                B9
Antes que pase más tiempo contigo amor
             E                       E7
tengo que decir que eres el amor de mi vida,
            A                 B9
antes que te ame más, escucha por favor
          E              A
dejame decir que todo te dí.

        F#m7
Y no hay, (como explicar)
        Abm
pero menos, (dudar)
        A             Bsus
simplemente así lo sentí
           A
cuando te ví.
Composição de Mario Domm
Colaboración y revision:
  • Luana Matos
  • jose
15.314 reproducciones
    • ½ Tono
    • A
    • Bb
    • B
    • C
    • Db
    • D
    • Eb
    • E
    • F
    • F#
    • G
    • Ab
  • Adicionar à lista

    0 comentarios

    Ver todos os comentários

    ¿Conseguiste tocar?

    5 Tocaram 0 Ainda não

    Grave um vídeo tocando Todo Cambio e nos envie!

    00:00 / 00:00
    outros vídeos desta música
    repetir qualidade Automático
    Outros vídeos desta música
    00:00 / 00:00
    Automático
    OK