Cifra Club

Rain

Candlebox

Cifrado: Principal (guitarra y guitarra eléctrica)
Selo Cifra Club: esta cifra foi revisada para atender aos critérios oficiais da nossa Equipe de Qualidade.
tono: D
Intro: 

E|-7-7-----------------------------------------|
B|-7-7-----------------10b----10b----10-12-12b-|
G|-7-7-7-9p7-9/11-11/7-----11-----11-----------|
D|---7-----------------------------------------|
A|---9-----------------------------------------|
E|---7-----------------------------------------|

E|-------------------------------|
B|-10-12-12p10----12-10----------|
G|-------------11-------11-9p7p6-|
D|-------------------------------|
A|-------------------------------|
E|-------------------------------|
Otros videos de esta canción
    9 exhibiciones
      • ½ Tono
      • A
      • Bb
      • B
      • C
      • Db
      • D
      • Eb
      • E
      • F
      • F#
      • G
      • Ab
    • Agregar a la lista

    Afinação da cifra

    Afinador online

      Ops (: Contenido disponible solo en portugués.
      OK