Cifra Club

Cavaleiro

Canto Dos Malditos Na Terra do Nunca

Cifrado: Principal (guitarra y guitarra eléctrica)
tono: F
[Intro]  Dm  F  C  Bb

Dm
Cavaleiro sozinho
F
Percorreu-se ao andar
C                             Bb
Só levando a procura de si achar
Dm
Com os pés no cavalo
F
Desenhando o traçar
C                        Bb
Da trilha de ventura que virá
Dm                          F
Lá se dá um caminho de existir
Além quimera
C                    Bb
E se onde for tiver amor assim
Quem dera
Dm                         F
Segue a seco bebe a fé da sorte que te espera
C                      Bb
Percorria um caminho Sol
Dm
Cavaleiro cigano
F
Sob o céu soberano
C                        Bb
Um horizonte de tantos sinais

( Dm  F  C  Bb )

E|------------------------------------|
B|----10-8------10-8-------10-8-6-8---|
G|---------10-9------10-7-----------7-|
D|------------------------------------|
A|------------------------------------|  
E|------------------------------------|

Dm                 F
Sob a noite no seu mar estrela
C                 Bb
Um tesouro sob a luz

Te espelhará
Dm                 F
Vestido de um cobertor poeira
C                    Bb
Na miragem dos seus dias descobrirá

E|------------------------------------|
B|----10-8------10-8-------10-8-6-8---|
G|---------10-9------10-7-----------7-|
D|------------------------------------|
A|------------------------------------|  
E|------------------------------------|

Dm
Cavaleiro cigano
F
Sob o céu soberano
C                        Bb
Um horizonte de tantos sinais
00:00 / 00:00
Otros videos de esta canción
Repetir
Otros videos de esta canción
Composición de Andrea Martins
Colaboración y revisión:
  • Douglas Lima
2 vistas
    • ½ Tono
    • A
    • Bb
    • B
    • C
    • Db
    • D
    • Eb
    • E
    • F
    • F#
    • G
    • Ab
  • Agregar a la lista

    0 comentarios

    Ver todos los comentarios

    ¿Lograste tocar?

    0 Tocaron 0 Aún no

    ¡Graba un video tocando Cavaleiro y envíanoslo!

    00:00 / 00:00
    OK