Cifra Club

Descansar

Canto Dos Malditos Na Terra do Nunca

Cifrado: Principal (guitarra y guitarra eléctrica)
tono: C
Am               Dm  G        Am
  Eu quero descansar no teu peito
                  Dm   G                        Am
  O cansaço dessa vida e o peso de ter que ser alguém
                Dm
  Eu já não sei o que faço meu bem
  G
  Nem o que farei
  Am              Dm   G                           Am
  Mas se você quiser e vier pro que der e vier comigo
           Dm  G
  Eu posso ser o seu abrigo
Am                Dm        G                     Am
  Mas se você não quiser eu posso ser um qualquer inimigo 
               Dm              G
  Mas só quero que saiba meu bem esteja sempre comigo

( A5  G5  F5  D5  B5  D5  C5  B5 )
( A5  G5  F5  D5  B5  D5  C5  B5 )

E|-------------------------------------------------------------------|
B|-------------------------------------------------------------------|
G|-------------------------------------------------------------------|
D|-------------------------------------------------------------------|
A|-------5-2-2----5-5-3-3-2-3---3-2-3-2-----------5-2-2---5-5-2-3-2-0|  
E|-5-3-1----------------------------------5-3-1----------------------|

Am         Dm   G            Am
  Eu quero encontrar a minha paz 
                Dm          G                    Am
  Que eu já não sei dos perigos que essa vida me traz 
                             Dm           G                    Am
  Só sei que a gente inventa o amor e dor e tudo que nos satisfaz
 Am              Dm   G                           Am
  Mas se você quiser e vier pro que der e vier comigo
           Dm  G
  Eu posso ser o seu abrigo
Am                Dm        G                          Am
  Mas se você não quiser me nego a todo e qualquer castigo
               Dm              G                    Am
  Mas só quero que saiba meu bem te levo sempre comigo


( A5  G5  F5  D5  B5  D5  C5  B5 )
( A5  G5  F5  D5  B5  D5  C5  B5 )

E|-------------------------------------------------------------------|
B|-------------------------------------------------------------------|
G|-------------------------------------------------------------------|
D|-------------------------------------------------------------------|
A|-------5-2-2----5-5-3-3-2-3---3-2-3-2-----------5-2-2---5-5-2-3-2-0|  
E|-5-3-1----------------------------------5-3-1----------------------|

( A5  F5  E5  D5 )

RIFF 1
E|---------------------------------------------------|
B|---------------------------------------------------|
G|---------------------------------------------------|
D|---------------------------------------------------|
A|-----------7-----------5-------5-------------------|  
E|-8-5-5-8-5---8-5-5-8-5---1--0----------------------|

RIFF 2
E|---------------------------------------------------|
B|---------------------------------------------------|
G|---------------------------------------------------|
D|---------------------------------------------------|
A|---------------------------------------------5-----|  
E|-8-5-5-5----8-5-8-5-8--5-5-5----8-5-8-5--1-0-------|
00:00 / 00:00
Otros videos de esta canción
Repetir
Otros videos de esta canción
Composición de Andrea Martins
Colaboración y revisión:
  • Douglas Lima
  • georgia bello
  • Maruan Sarraf
150 vistas
    • ½ Tono
    • A
    • Bb
    • B
    • C
    • Db
    • D
    • Eb
    • E
    • F
    • F#
    • G
    • Ab
  • Agregar a la lista

    0 comentarios

    Ver todos los comentarios

    ¿Lograste tocar?

    19 Tocaron 1 Aún no

    ¡Graba un video tocando Descansar y envíanoslo!

    00:00 / 00:00
    OK